Song name
# A B C D E F G H I J K L M N O P Q R S T U V W X Y Z

Fall Out Boy - I Slept With Someone In Fall Out Boy And All I Got Was This Stupid Song Written About Me tab

Help us improve GuitareTab! Take a short survey!
This A great song but i wanteed to tab it in drop D entirely to make it it even 
me at g-string44@hotmail.com.Stumming patterns are obvious so i wont waste my time.


|-------------|-----------------------------|
|-------------|-----------------------------|
|-------------|-----------------------------|
|--(2)--(5)--9|--9-9-99-12-12-1212-2-2-222--|    Pause
|--(2)--(5)--9|--9-9-99-12-12-1212-2-2-222--|x4
|--(2)--(5)--9|--9-9-99-12-12-1212-2-2-222--|


Link
|--------------------------|
|--------------------------|
|--------------------------|
|-9--0--5--0---7--9--5---0-|
|-9--0--5--0---7--9--5---0-|x2
|-9--0--5--0---7--9--5---0-|

Verse
|-----------------------------|
|--9-9-99-12-12-1212-2-2-222--|
|--9-9-99-12-12-1212-2-2-222--|x4
|--9-9-99-12-12-1212-2-2-222--|


Chorus
|-----------|-----------------------------------|
|-----------|-----------------------------------|
|-----------|-----------------------------------|
|-(2)---(5)-|--9---0---2---4-5----9---7---5-----|
|-(2)---(5)-|--9---0---2---4-5----9---7---5-----|
|-(2)---(5)-|--9---0---2---4-5----9---7---5-----|

Link
|--------------------------|
|--------------------------|
|--------------------------|
|-9--0--5--0---7--9--5---0-|
|-9--0--5--0---7--9--5---0-|x2
|-9--0--5--0---7--9--5---0-|


Verse
|-----------------------------|
|--9-9-99-12-12-1212-2-2-222--|
|--9-9-99-12-12-1212-2-2-222--|x4
|--9-9-99-12-12-1212-2-2-222--|


Slower intro thing
|-----------------------|
|-----------------------|
|-----------------------|
|-(9)---(0)---(5)---(2)-|
|-(9)---(0)---(5)---(2)-|
|-(9)---(0)---(5)---(2)-|


Chorus
|-----------|-----------------------------------|
|-----------|-----------------------------------|
|-----------|-----------------------------------|
|-(2)---(5)-|--9---0---2---4-5----9---7---5-----|
|-(2)---(5)-|--9---0---2---4-5----9---7---5-----|
|-(2)---(5)-|--9---0---2---4-5----9---7---5-----|

link
|----------|
|----------|
|----------|
|-(2)---(5)|
|-(2)---(5)|
|-(2)---(5)|


Breakdown
|---------------------------------|
|---------------------------------|
|---------------------------------|
|-9-9-9-9-9-9-9-9-9-9-9-9-9-9-9-9-|
|-9-9-9-9-9-9-9-9-9-9-9-9-9-9-9-9-|
|-9-9-9-9-9-9-9-9-9-9-9-9-9-9-9-9-|
PM ...........................


|---------------------------------|
|---------------------------------|
|---------------------------------|
|-9-9-9-9-9-9-9-9-9-9-9-9-9-9-9-9-|
|-9-9-9-9-9-9-9-9-9-9-9-9-9-9-9-9-|
|-9-9-9-9-9-9-9-9-9-9-9-9-9-9-9-9-|
PM ...........................


Slower intro thing
|-----------------------|
|-----------------------|
|-----------------------|
|-(9)---(0)---(5)---(2)-|
|-(9)---(0)---(5)---(2)-|
|-(9)---(0)---(5)---(2)-|

Chorus
|-----------|-----------------------------------|
|-----------|-----------------------------------|
|-----------|-----------------------------------|
|-(2)---(5)-|--9---0---2---4-5----9---7---5-----|
|-(2)---(5)-|--9---0---2---4-5----9---7---5-----|
|-(2)---(5)-|--9---0---2---4-5----9---7---5-----|

thats it.
Related for I Slept With Someone In Fall Out Boy And All I Got Was This Stupid Song Written About Me tab