Song name
# A B C D E F G H I J K L M N O P Q R S T U V W X Y Z

Fall Out Boy - Of All The Gin Joints In All The World tab

Help us improve GuitareTab! Take a short survey!
Fall Out Boy - Of All The Gin Joints In All The World
From Under The Cork Tree

awesome song, and so fun to play. the beginning is kinda annoying because you have to
hear the beat right or else it sounds weird. drop d tuning. everything's in order, so
read the tab all the way through. no shenanigans.

 Key:

 / - slide up
 \ - slide down
 h - hammer on
 p - pull off
 . - palm mute
 x - left hand mute
 + - harmonic
 ~ - let it ring
 t - tenth fret (so everything lines up neatly)
(5)- ghost note

---------------------------------------------------------------------------------
Intro

   1 + 2 + 3 + 4 +   1 + 2 + 3 + 4 +   1 + 2 + 3 + 4 +   1 + 2 + 3 + 4 +
E|-----------------|-----------------|-----------------|-----------------|
B|-----------------|-----------------|-----------------|-----------------|
G|-----------------|-----------------|-----------------|-----------------|
D|---3-3-3-3/5-5-5-|-5/7-7-7---t---t-|---3-3-3-3/5-5-5-|-5/7-7-7---------|
A|---3-3-3-3/5-5-5-|-5/7-7-7---t---t-|---3-3-3-3/5-5-5-|-5/7-7-7-0-0-5p3-|
D|---3-3-3-3/5-5-5-|-5/7-7-7---t---t-|---3-3-3-3/5-5-5-|-5/7-7-7-0-0-----|
 |                                                               . .
 |
 | 1 + 2 + 3 + 4 +   1 + 2 + 3 + 4 +   1 + 2 + 3 + 4 +   1 + 2 + 3 + 4 +
E|-----------------|-----------------|-----------------|-----------------|
B|-----------------|-----------------|-----------------|-----------------|
G|-----------------|-----------------|-----------------|-----------------|
D|-----------------|-----------------|-----------------|-----------------|
A|-----------------|-----------------|-----------------|---------0-0-5p3-|
D|-----------------|-----------------|-----------------|---------0-0-----|
                                                                 . .


   1 + 2 + 3 + 4 +   1 + 2 + 3 + 4 +   1 + 2 + 3 + 4 +   1 + 2 + 3 + 4 +
E|-----------------|-----------------|-----------------|-----------------|
B|-----------------|-----------------|-----------------|-----------------|
G|-----------------|-----------------|-----------------|-----------------|
D|---3-3-3-3/5-5-5-|-5/7-7-7---t---t-|---3-3-3-3/5-5-5-|-5/7-7-7---------|
A|---3-3-3-3/5-5-5-|-5/7-7-7---t---t-|---3-3-3-3/5-5-5-|-5/7-7-7-0-0-5p3-|
D|---3-3-3-3/5-5-5-|-5/7-7-7---t---t-|---3-3-3-3/5-5-5-|-5/7-7-7-0-0-----|
 |                                                               . .
 |
 | 1 + 2 + 3 + 4 +   1 + 2 + 3 + 4 +   1 + 2 + 3 + 4 +   1 + 2 + 3 + 4 +
E|-----------------|-----------------|-----------------|-----------------|
B|-----------------|-----------------|-----------------|-----------------|
G|-----------------|-----------------|-----------------|-----------------|
D|---3-3-3-3/5-5-5-|-5/7-7-7---t---t-|---3-3-3-3/5-5-5-|-5/7-7-7---------|
A|---3-3-3-3/5-5-5-|-5/7-7-7---t---t-|---3-3-3-3/5-5-5-|-5/7-7-7-0-0-5p3-|
D|---3-3-3-3/5-5-5-|-5/7-7-7---t---t-|---3-3-3-3/5-5-5-|-5/7-7-7-0-0-----|
                                                                 . .


   1 + 2 + 3 + 4 +   1 + 2 + 3 + 4 +   1 + 2 + 3 + 4 +   1 + 2 + 3 + 4 +
E|-----------------|-----------------|-----------------|-----------------|
B|-----------------|-----------------|-----------------|-----------------|
G|-----------------|-----------------|-----------------|-----------------|
D|---3-3-3-3/5-5-5-|-5/7-7-7---t---t-|---3-3-3-3/5-5-5-|-5/7-7-7---------|
A|---3-3-3-3/5-5-5-|-5/7-7-7---t---t-|---3-3-3-3/5-5-5-|-5/7-7-7-0-0-5p3-|
D|---3-3-3-3/5-5-5-|-5/7-7-7---t---t-|---3-3-3-3/5-5-5-|-5/7-7-7-0-0-----|
 |                                                               . .
 |
 | 1 + 2 + 3 + 4 +   1 + 2 + 3 + 4 +   1 + 2 + 3 + 4 +   1 + 2 + 3 + 4 +
E|-----------------|-----------------|-----------------|-----------------|
B|-----------------|-----------------|-----------------|-----------------|
G|-----------------|-----------------|-----------------|-----------------|
D|---3-3-3-3/5-5-5-|-5/7-7-7---t---t-|---3-3-3-3/5-5-5-|-5/7-7-7---------|
A|---3-3-3-3/5-5-5-|-5/7-7-7---t---t-|---3-3-3-3/5-5-5-|-5/7-7-7-0-0-5p3-|
D|---3-3-3-3/5-5-5-|-5/7-7-7---t---t-|---3-3-3-3/5-5-5-|-5/7-7-7-0-0-----|
                                                                 . .

Verse

   1 + 2 + 3 + 4 +   1 + 2 + 3 + 4 +   1 + 2 + 3 + 4 +   1 + 2 + 3 + 4 +
E|-----------------|-----------------|-----------------|-----------------|
B|-----------------|-----------------|-----------------|-----------------|
G|-5-5-5-5-5-5-5-5-|-5-5-5-5-5-------|-----5-5-5-5-5-5-|-5-5-5-5-5-------|
D|-x-x-x-x-x-x-x-x-|-x-x-x-x-x-2-2-3-|-3---x-x-x-x-x-x-|-x-x-x-x-x-2-2-3-|
A|-3-3-3-3-3-3-3-3-|-3-3-3-3-3-2-2-3-|-3---3-3-3-3-3-3-|-3-3-3-3-3-2-2-3-|
D|-----------------|-----------2-2-3-|-3---------------|-----------2-2-3-|
 |
 |
 | 1 + 2 + 3 + 4 +   1 + 2 + 3 + 4 +   1 + 2 + 3 + 4 +   1 + 2 + 3 + 4 +
E|-----------------|-----------------|-----------------|-----------------|
B|-----------------|-----------------|-----------------|-----------------|
G|-----------------|-----------------|-----------------|-----------------|
D|-----------------|-----------2-2-3-|-3---------------|-----------2-2-3-|
A|-----------------|-----------2-2-3-|-3---------------|-----------2-2-3-|
D|-----------------|-----------2-2-3-|-3---------------|-----------2-2-3-|



   1 + 2 + 3 + 4 +   1 + 2 + 3 + 4 +   1 + 2 + 3 + 4 +   1 + 2 + 3 + 4 +
E|-----------------|-----------------|-----------------|-----------------|
B|-----------------|-----------------|-----------------|-----------------|
G|-----5-5-5-5-5-5-|-5-5-5-5-5-------|-----------------|-----------------|
D|-3---x-x-x-x-x-x-|-x-x-x-x-x-2-2-3-|-3-----7---5---2-|---2-2---2-2-2-3-|
A|-3---3-3-3-3-3-3-|-3-3-3-3-3-2-2-3-|-3-----7---5---2-|---2-2---2-2-2-3-|
D|-3---------------|-----------2-2-3-|-3-----7---5---2-|---2-2---2-2-2-3-|
 |
 |
 | 1 + 2 + 3 + 4 +   1 + 2 + 3 + 4 +   1 + 2 + 3 + 4 +   1 + 2 + 3 + 4 +
E|-----------------|-----------------|-----------------|-----------------|
B|-----------------|-----------------|-----------------|-----------------|
G|-----------------|-----------------|-----------------|-----------------|
D|-3---------------|-----------2-2-3-|-3-----7---5---2-|---2-2---2-2-2-3-|
A|-3---------------|-----------2-2-3-|-3-----7---5---2-|---2-2---2-2-2-3-|
D|-3---------------|-----------2-2-3-|-3-----7---5---2-|---2-2---2-2-2-3-|



   1 + 2 + 3 + 4 +   1 + 2 + 3 + 4 +   1 + 2 + 3 + 4 +   1 + 2 + 3 + 4 +
E|-----------------|-----------------|-----------------|-----------------|
B|-----------------|-----------------|-----------------|-----------------|
G|-----------------|-----------------|-----5-5-5-5-5-5-|-5-5-5-5-5-------|
D|---3-3---3-3-3---|-3-3-3---3-2-2-3-|-3---x-x-x-x-x-x-|-x-x-x-x-x-2-2-3-|
A|---3-3---3-3-3---|-3-3-3---3-2-2-3-|-3---3-3-3-3-3-3-|-3-3-3-3-3-2-2-3-|
D|---3-3---3-3-3---|-3-3-3---3-2-2-3-|-3---------------|-----------2-2-3-|
 |
 |
 | 1 + 2 + 3 + 4 +   1 + 2 + 3 + 4 +   1 + 2 + 3 + 4 +   1 + 2 + 3 + 4 +
E|-----------------|-----------------|-----------------|-----------------|
B|-----------------|-----------------|-----------------|-----------------|
G|-----------------|-----------------|-----------------|-----------------|
D|---3-3---3-3-3---|-3-3-3---3-2-2-3-|-3---x-x-x-x-x-x-|-x-x-x-x-x-2-2-3-|
A|---3-3---3-3-3---|-3-3-3---3-2-2-3-|-3---x-x-x-x-x-x-|-x-x-x-x-x-2-2-3-|
D|---3-3---3-3-3---|-3-3-3---3-2-2-3-|-3---x-x-x-x-x-x-|-x-x-x-x-x-2-2-3-|



   1 + 2 + 3 + 4 +   1 + 2 + 3 + 4 +   1 + 2 + 3 + 4 +   1 + 2 + 3 + 4 +
E|-----------------|-----------------|-----------------|-----------------|
B|-----------------|-----------------|-----------------|-----------------|
G|-----5-5-5-5-5-5-|-5-5-5-5-5-------|-----------------|-----------------|
D|-3---x-x-x-x-x-x-|-x-x-x-x-x-2-2-3-|-3-----7---5---2-|---2-2---2-2-2-3-|
A|-3---3-3-3-3-3-3-|-3-3-3-3-3-2-2-3-|-3-----7---5---2-|---2-2---2-2-2-3-|
D|-3---------------|-----------2-2-3-|-3-----7---5---2-|---2-2---2-2-2-3-|
 |
 |
 | 1 + 2 + 3 + 4 +   1 + 2 + 3 + 4 +   1 + 2 + 3 + 4 +   1 + 2 + 3 + 4 +
E|-----------------|-----------------|-----------------|-----------------|
B|-----------------|-----------------|-----------------|-----------------|
G|-----------------|-----------------|-----------------|-----------------|
D|-3---x-x-x-x-x-x-|-x-x-x-x-x-2-2-3-|-3-----7---5---2-|---2-2---2-2-2-3-|
A|-3---x-x-x-x-x-x-|-x-x-x-x-x-2-2-3-|-3-----7---5---2-|---2-2---2-2-2-3-|
D|-3---x-x-x-x-x-x-|-x-x-x-x-x-2-2-3-|-3-----7---5---2-|---2-2---2-2-2-3-|



   1 + 2 + 3 + 4 +   1 + 2 + 3 + 4 +
E|-----------------|-----------------|
B|-----------------|-----------------|
G|-----------------|-----------------|
D|---3-3---3-3-3-3-|-3-3-3-3---------|
A|---3-3---3-3-3-3-|-3-3-3-3---------|
D|---3-3---3-3-3-3-|-3-3-3-3---------|
 |                     . .
 |
 | 1 + 2 + 3 + 4 +   1 + 2 + 3 + 4 +
E|-----------------|-----------------|
B|-----------------|-----------------|
G|-----------------|-----------------|
D|---3-3---3-3-3-3-|-3-3-3-3---------|
A|---3-3---3-3-3-3-|-3-3-3-3---------|
D|---3-3---3-3-3-3-|-3-3-3-3---------|
                       . .


Chorus

   1 + 2 + 3 + 4 +   1 + 2 + 3 + 4 +   1 + 2 + 3 + 4 +   1 + 2 + 3 + 4 +
E|-----------------|-----------------|-----------------|-----------------|
B|-5---5---8---8---|-5---5---8---8---|-5---5---8---8---|-5---5---8---8---|
G|---5---5---5---5-|---5---5---5---5-|---5---5---5---5-|---5---5---5---5-|
D|-----------------|-----------------|-----------------|-----------------|
A|-----------------|-----------------|-----------------|-----------------|
D|-----------------|-----------------|-----------------|-----------------|
 |
 |
 | 1 + 2 + 3 + 4 +   1 + 2 + 3 + 4 +   1 + 2 + 3 + 4 +   1 + 2 + 3 + 4 +
E|-----------------|-----------------|-----------------|-----------------|
B|-----------------|-----------------|-----------------|-----------------|
G|-5-5---------5---|-----------------|-----------------|-----------------|
D|-5-5---------5---|-5-5---------5---|-7p5h7-------7p5-|-7-----7-7-5-5-5-|
A|-3-3---------3---|-5-5---------5---|-7p5h7-------7p5-|-7-----7-7-5-5-5-|
D|-----------------|-5-5---------5---|-7p5h7-------7p5-|-7-----7-7-5-5-5-|



   1 + 2 + 3 + 4 +   1 + 2 + 3 + 4 +   1 + 2 + 3 + 4 +   1 + 2 + 3 + 4 +
E|-----------------|-----------------|-----------------|-----------------|
B|-5---5---8---8---|-5---5---8---8---|-5---5---8---8---|-5---5---8---8---|
G|---5---5---5---5-|---5---5---5---5-|---5---5---5---5-|---5---5---5---5-|
D|-----------------|-----------------|-----------------|-----------------|
A|-----------------|-----------------|-----------------|-----------------|
D|-----------------|-----------------|-----------------|-----------------|
 |
 |
 | 1 + 2 + 3 + 4 +   1 + 2 + 3 + 4 +   1 + 2 + 3 + 4 +   1 + 2 + 3 + 4 +
E|-----------------|-----------------|-----------------|-----------------|
B|-----------------|-----------------|-----------------|-----------------|
G|-5-5---------5---|-----------------|-----------------|-----------------|
D|-5-5---------5---|-5-5---------5---|-3-3-3-3-3-3-3-3-|-3-3-3-3-3-3-3-3-|
A|-3-3---------3---|-5-5---------5---|-3-3-3-3-3-3-3-3-|-3-3-3-3-3-3-3-3-|
D|-----------------|-5-5---------5---|-3-3-3-3-3-3-3-3-|-3-3-3-3-3-3-3-3-|
                                           . . . . . .   . . . .



   1 + 2 + 3 + 4 +   1 + 2 + 3 + 4 +   1 + 2 + 3 + 4 +   1 + 2 + 3 + 4 +
E|-----------------|-----------------|-----------------|-----------------|
B|-----------------|-----------------|-----------------|-----------------|
G|-9-9-9-9-9-9-9-t-|-7-7-7-7-7-7-7-7-|-5-4-5-5-5-5-5-4-|-5-5-5-5-5-4-4-4-|
D|-x-x-x-x-x-x-x-x-|-x-x-x-x-x-x-x-x-|-x-x-x-x-x-x-x-x-|-x-x-x-x-x-x-x-x-|
A|-7-7-7-7-7-7-7-8-|-5-5-5-5-5-5-5-5-|-3-2-3-3-3-3-3-2-|-3-3-3-3-3-2-2-2-|
D|-----------------|-----------------|-----------------|-----------------|
 |
 |
 | 1 + 2 + 3 + 4 +   1 + 2 + 3 + 4 +   1 + 2 + 3 + 4 +   1 + 2 + 3 + 4 +
E|-----------------|-----------------|-----------------|-----------------|
B|-----------------|-----------------|-----------------|-----------------|
G|-5-5-5-5-5-5-5-5-|-----------------|-----------------|-----------------|
D|-5-5-5-5-5-5-5-5-|-5-5-5-5-5-5-5-5-|-7p5h7-7-7-7-7p5-|-7-7-7-7-7-5-5-5-|
A|-3-3-3-3-3-3-3-3-|-5-5-5-5-5-5-5-5-|-7p5h7-7-7-7-7p5-|-7-7-7-7-7-5-5-5-|
D|-----------------|-5-5-5-5-5-5-5-5-|-7p5h7-7-7-7-7p5-|-7-7-7-7-7-5-5-5-|



   1 + 2 + 3 + 4 +   1 + 2 + 3 + 4 +
E|-----------------|-----------------|
B|-----------------|-----------------|
G|-9-9-9-9-9-9-9-t-|-7-7-7-7-7-7-x-x-|
D|-x-x-x-x-x-x-x-x-|-x-x-x-x-x-x-x-x-|
A|-7-7-7-7-7-7-7-8-|-5-5-5-5-5-5-x-x-|
D|-----------------|-----------------|
 |
 |
 | 1 + 2 + 3 + 4 +   1 + 2 + 3 + 4 +
E|-----------------|-----------------|
B|-----------------|-----------------|
G|-5-5-5-5-5-5-5-5-|-----------------|
D|-5-5-5-5-5-5-5-5-|-5-5-5-5-5-5-x-x-|
A|-3-3-3-3-3-3-3-3-|-5-5-5-5-5-5-x-x-|
D|-----------------|-5-5-5-5-5-5-x-x-|


Post-Chorus

   1 + 2 + 3 + 4 +   1 + 2 + 3 + 4 +   1 + 2 + 3 + 4 +   1 + 2 + 3 + 4 +
E|-----------------|-----------------|-----------------|-----------------|
B|-----------------|-----------------|-----------------|-----------------|
G|---5-5-5-5/7-7-7-|-7/9-9-9---12--12|---5-5-5-5/7-7-7-|-7/9-9-9---------|
D|---x-x-x-x/x-x-x-|-x/x-x-x----x---x|---x-x-x-x/x-x-x-|-x/x-x-x---------|
A|---3-3-3-3/5-5-5-|-5/7-7-7---10--10|---3-3-3-3/5-5-5-|-5/7-7-7-0-0-5p3-|
D|-----------------|-----------------|-----------------|---------0-0-----|
 |                                                               . .
 |
 | 1 + 2 + 3 + 4 +   1 + 2 + 3 + 4 +   1 + 2 + 3 + 4 +   1 + 2 + 3 + 4 +
E|-----------------|-----------------|-----------------|-----------------|
B|-----------------|-----------------|-----------------|-----------------|
G|-----------------|-----------------|-----------------|-----------------|
D|---3-3-3-3/5-5-5-|-5/7-7-7---t---t-|---3-3-3-3/5-5-5-|-5-7-7-7---------|
A|---3-3-3-3/5-5-5-|-5/7-7-7---t---t-|---3-3-3-3/5-5-5-|-5-7-7-7-0-0-5p3-|
D|---3-3-3-3/5-5-5-|-5/7-7-7---t---t-|---3-3-3-3/5-5-5-|-5-7-7-7-0-0-----|
                                                                 . .


   1 + 2 + 3 + 4 +   1 + 2 + 3 + 4 +   1 + 2 + 3 + 4 +   1 + 2 + 3 + 4 +
E|-----------------|-----------------|-----------------|-----------------|
B|-----------------|-----------------|-----------------|-----------------|
G|---5-5-5-5/7-7-7-|-7/9-9-9---12--12|---5-5-5-5/7-7-7-|-7/9-9-9---------|
D|---x-x-x-x/x-x-x-|-x/x-x-x----x---x|---x-x-x-x/x-x-x-|-x/x-x-x---------|
A|---3-3-3-3/5-5-5-|-5/7-7-7---10--10|---3-3-3-3/5-5-5-|-5/7-7-7-0-0-5p3-|
D|-----------------|-----------------|-----------------|---------0-0-----|
 |                                                               . .
 |
 | 1 + 2 + 3 + 4 +   1 + 2 + 3 + 4 +   1 + 2 + 3 + 4 +   1 + 2 + 3 + 4 +
E|-----------------|-----------------|-----------------|-----------------|
B|-----------------|-----------------|-----------------|-----------------|
G|-----------------|-----------------|-----------------|-----------------|
D|---3-3-3-3/5-5-5-|-5/7-7-7---t---t-|---3-3-3-3/5-5-5-|-5/7-7-7---------|
A|---3-3-3-3/5-5-5-|-5/7-7-7---t---t-|---3-3-3-3/5-5-5-|-5/7-7-7-0-0-5p3-|
D|---3-3-3-3/5-5-5-|-5/7-7-7---t---t-|---3-3-3-3/5-5-5-|-5/7-7-7-0-0-----|
                                                                 . .

Verse

   1 + 2 + 3 + 4 +   1 + 2 + 3 + 4 +   1 + 2 + 3 + 4 +   1 + 2 + 3 + 4 +
E|-----------------|-----------------|-----------------|-----------------|
B|-----------------|-----------------|-----------------|-----------------|
G|-5-5-5-5-5-5-5-5-|-5-5-5-5-5-------|-----5-5-5-5-5-5-|-5-5-5-5-5-------|
D|-x-x-x-x-x-x-x-x-|-x-x-x-x-x-2-2-3-|-3---x-x-x-x-x-x-|-x-x-x-x-x-2-2-3-|
A|-3-3-3-3-3-3-3-3-|-3-3-3-3-3-2-2-3-|-3---3-3-3-3-3-3-|-3-3-3-3-3-2-2-3-|
D|-----------------|-----------2-2-3-|-3---------------|-----------2-2-3-|
 |
 |
 | 1 + 2 + 3 + 4 +   1 + 2 + 3 + 4 +   1 + 2 + 3 + 4 +   1 + 2 + 3 + 4 +
E|-----------------|-----------------|-----------------|-----------------|
B|-----------------|-----------------|-----------------|-----------------|
G|-----------------|-----------------|-----------------|-----------------|
D|-----------------|-----------2-2-3-|-3---------------|-----------2-2-3-|
A|-----------------|-----------2-2-3-|-3---------------|-----------2-2-3-|
D|-----------------|-----------2-2-3-|-3---------------|-----------2-2-3-|



   1 + 2 + 3 + 4 +   1 + 2 + 3 + 4 +   1 + 2 + 3 + 4 +   1 + 2 + 3 + 4 +
E|-----------------|-----------------|-----------------|-----------------|
B|-----------------|-----------------|-----------------|-----------------|
G|-----5-5-5-5-5-5-|-5-5-5-5-5-------|-----------------|-----------------|
D|-3---x-x-x-x-x-x-|-x-x-x-x-x-2-2-3-|-3-----3---3---7~|(7)--------------|
A|-3---3-3-3-3-3-3-|-3-3-3-3-3-2-2-3-|-3-----3---3---7~|(7)--------------|
D|-3---------------|-----------2-2-3-|-3-----3---3---7~|(7)--------------|
 |
 |
 | 1 + 2 + 3 + 4 +   1 + 2 + 3 + 4 +   1 + 2 + 3 + 4 +   1 + 2 + 3 + 4 +
E|-----------------|-----------------|-----------------|-----------------|
B|-----------------|-----------------|-----------------|-----------------|
G|-----------------|-----------------|-----------------|-----------------|
D|-3---------------|-----------2-2-3-|-3-----3---3---7~|(7)--------------|
A|-3---------------|-----------2-2-3-|-3-----3---3---7~|(7)--------------|
D|-3---------------|-----------2-2-3-|-3-----3---3---7~|(7)--------------|



   1 + 2 + 3 + 4 +   1 + 2 + 3 + 4 +   1 + 2 + 3 + 4 +   1 + 2 + 3 + 4 +
E|-----------------|-----------------|-----------------|-----------------|
B|-----------------|-----------------|-----------------|-----------------|
G|-----------------|-----------------|-----------------|-----------------|
D|-3-----3---3---7~|(7)--------------|-3-----3----3--7~|(7)--------------|
A|-3-----3---3---7~|(7)--------------|-3-----3----3--7~|(7)--------------|
D|-3-----3---3---7~|(7)--------------|-3-----3----3--7~|(7)--------------|
 |
 |
 | 1 + 2 + 3 + 4 +   1 + 2 + 3 + 4 +   1 + 2 + 3 + 4 +   1 + 2 + 3 + 4 +
E|-----------------|-----------------|-----------------|-----------------|
B|-----------------|-----------------|-----------------|-----------------|
G|-----------------|-----------------|-----------------|-----------------|
D|-3-----3---3---7~|(7)--------------|-3-----3----3--7~|(7)--------------|
A|-3-----3---3---7~|(7)--------------|-3-----3----3--7~|(7)--------------|
D|-3-----3---3---7~|(7)--------------|-3-----3----3--7~|(7)--------------|



   1 + 2 + 3 + 4 +   1 + 2 + 3 + 4 +   1 + 2 + 3 + 4 +   1 + 2 + 3 + 4 +
E|-----------------|-----------------|-----------------|-----------------|
B|-----------------|-----------------|-----------------|-----------------|
G|-5-5-5-5-7-7-7-7-|-9-9-9-9-t-t-t-t-|-5\--------------|-----------------|
D|-x-x-x-x-x-x-x-x-|-x-x-x-x-x-x-x-x-|-x\--------------|-----------------|
A|-3-3-3-3-5-5-5-5-|-7-7-7-7-8-8-8-8-|-3\--------------|-----------------|
D|-----------------|-----------------|-----------------|-----------------|
 |
 |
 | 1 + 2 + 3 + 4 +   1 + 2 + 3 + 4 +   1 + 2 + 3 + 4 +   1 + 2 + 3 + 4 +
E|-----------------|-----------------|-----------------|-----------------|
B|-----------------|-----------------|-----------------|-----------------|
G|-----------------|-----------------|-----------------|-----------------|
D|-3---3-3-3-3-3-3-|-3-3-3-3-3-3-3-3-|-3\--------------|-2---2---2-------|
A|-3---3-3-3-3-3-3-|-3-3-3-3-3-3-3-3-|-3\--------------|-2---2---2-------|
D|-3---3-3-3-3-3-3-|-3-3-3-3-3-3-3-3-|-3\--------------|-2---2---2-------|
       . . . . . .   . . . . . . . .                     .   .   .


Chorus

   1 + 2 + 3 + 4 +   1 + 2 + 3 + 4 +   1 + 2 + 3 + 4 +   1 + 2 + 3 + 4 +
E|-----------------|-----------------|-----------------|-----------------|
B|-5---5---8---8---|-5---5---8---8---|-5---5---8---8---|-5---5---8---8---|
G|---5---5---5---5-|---5---5---5---5-|---5---5---5---5-|---5---5---5---5-|
D|-----------------|-----------------|-----------------|-----------------|
A|-----------------|-----------------|-----------------|-----------------|
D|-----------------|-----------------|-----------------|-----------------|
 |
 |
 | 1 + 2 + 3 + 4 +   1 + 2 + 3 + 4 +   1 + 2 + 3 + 4 +   1 + 2 + 3 + 4 +
E|-----------------|-----------------|-----------------|-----------------|
B|-----------------|-----------------|-----------------|-----------------|
G|-5-5---------5---|-----------------|-----------------|-----------------|
D|-5-5---------5---|-5-5---------5---|-7p5h7-------7p5-|-7-----7-7-5-5-5-|
A|-3-3---------3---|-5-5---------5---|-7p5h7-------7p5-|-7-----7-7-5-5-5-|
D|-----------------|-5-5---------5---|-7p5h7-------7p5-|-7-----7-7-5-5-5-|



   1 + 2 + 3 + 4 +   1 + 2 + 3 + 4 +   1 + 2 + 3 + 4 +   1 + 2 + 3 + 4 +
E|-----------------|-----------------|-----------------|-----------------|
B|-5---5---8---8---|-5---5---8---8---|-5---5---8---8---|-5---5---8---8---|
G|---5---5---5---5-|---5---5---5---5-|---5---5---5---5-|---5---5---5---5-|
D|-----------------|-----------------|-----------------|-----------------|
A|-----------------|-----------------|-----------------|-----------------|
D|-----------------|-----------------|-----------------|-----------------|
 |
 |
 | 1 + 2 + 3 + 4 +   1 + 2 + 3 + 4 +   1 + 2 + 3 + 4 +   1 + 2 + 3 + 4 +
E|-----------------|-----------------|-----------------|-----------------|
B|-----------------|-----------------|-----------------|-----------------|
G|-5-5---------5---|-----------------|-----------------|-----------------|
D|-5-5---------5---|-5-5---------5---|-3-3-3-3-3-3-3-3-|-3-3-3-3-3-3-3-3-|
A|-3-3---------3---|-5-5---------5---|-3-3-3-3-3-3-3-3-|-3-3-3-3-3-3-3-3-|
D|-----------------|-5-5---------5---|-3-3-3-3-3-3-3-3-|-3-3-3-3-3-3-3-3-|
                                           . . . . . .   . . . .



   1 + 2 + 3 + 4 +   1 + 2 + 3 + 4 +   1 + 2 + 3 + 4 +   1 + 2 + 3 + 4 +
E|-----------------|-----------------|-----------------|-----------------|
B|-----------------|-----------------|-----------------|-----------------|
G|-9-9-9-9-9-9-9-t-|-7-7-7-7-7-7-7-7-|-5-4-5-5-5-5-5-4-|-5-5-5-5-5-4-4-4-|
D|-x-x-x-x-x-x-x-x-|-x-x-x-x-x-x-x-x-|-x-x-x-x-x-x-x-x-|-x-x-x-x-x-x-x-x-|
A|-7-7-7-7-7-7-7-8-|-5-5-5-5-5-5-5-5-|-3-2-3-3-3-3-3-2-|-3-3-3-3-3-2-2-2-|
D|-----------------|-----------------|-----------------|-----------------|
 |
 |
 | 1 + 2 + 3 + 4 +   1 + 2 + 3 + 4 +   1 + 2 + 3 + 4 +   1 + 2 + 3 + 4 +
E|-----------------|-----------------|-----------------|-----------------|
B|-----------------|-----------------|-----------------|-----------------|
G|-5-5-5-5-5-5-5-5-|-----------------|-----------------|-----------------|
D|-5-5-5-5-5-5-5-5-|-5-5-5-5-5-5-5-5-|-7p5h7-7-7-7-7p5-|-7-7-7-7-7-5-5-5-|
A|-3-3-3-3-3-3-3-3-|-5-5-5-5-5-5-5-5-|-7p5h7-7-7-7-7p5-|-7-7-7-7-7-5-5-5-|
D|-----------------|-5-5-5-5-5-5-5-5-|-7p5h7-7-7-7-7p5-|-7-7-7-7-7-5-5-5-|



   1 + 2 + 3 + 4 +   1 + 2 + 3 + 4 +   1 + 2 + 3 + 4 +   1 + 2 + 3 + 4 + 
E|-----------------|-----------------|-----------------|-----------------|
B|-----------------|-----------------|-----------------|-----------------|
G|-9-9-9-9-9-9-9-t-|-7-7-7-7-x-x-x-9-|---9-x-5---5-x-9-|---9-x-7---7-x-9-|
D|-x-x-x-x-x-x-x-x-|-x-x-x-x-x-x-x-x-|---x-x-x---x-x-x-|---x-x-x---x-x-x-|
A|-7-7-7-7-7-7-7-8-|-5-5-5-5-x-x-x-7-|---7-x-3---3-x-7-|---7-x-5---5-x-7-|
D|-----------------|-----------------|-----------------|-----------------|
 |
 |
 | 1 + 2 + 3 + 4 +   1 + 2 + 3 + 4 +   1 + 2 + 3 + 4 +   1 + 2 + 3 + 4 +
E|-----------------|-----------------|-----------------|-----------------|
B|-----------------|-----------------|-----------------|-----------------|
G|-5-5-5-5-5-5-5-5-|-----------------|---------------5-|---5-x-----------|
D|-5-5-5-5-5-5-5-5-|-5-5-5-5-x-x-x-7-|---7-x-3---3-x-5-|---5-x-5---5-x-7-|
A|-3-3-3-3-3-3-3-3-|-5-5-5-5-x-x-x-7-|---7-x-3---3-x-3-|---3-x-5---5-x-7-|
D|-----------------|-5-5-5-5-x-x-x-7-|---7-x-3---3-x---|-------5---5-x-7-|



   1 + 2 + 3 + 4 +   1 + 2 + 3 + 4 +   1 + 2 + 3 + 4 +   1 + 2 + 3 + 4 +
E|-----------------|-----------------|-----------------|-----------------|
B|-----------------|-----------------|-----------------|-----------------|
G|---9-x-5---5-x-9-|---9-x-7---7-x-9-|---9-x-5---5-x-9-|---9-x-7---7-x-4-|
D|---x-x-x---x-x-x-|---x-x-x---x-x-x-|---x-x-x---x-x-x-|---x-x-x---x-x-x-|
A|---7-x-3---3-x-7-|---7-x-5---5-x-7-|---7-x-3---3-x-7-|---7-x-5---5-x-2-|
D|-----------------|-----------------|-----------------|-----------------|
 |
 |
 | 1 + 2 + 3 + 4 +   1 + 2 + 3 + 4 +   1 + 2 + 3 + 4 +   1 + 2 + 3 + 4 +
E|-----------------|-----------------|-----------------|-----------------|
B|-----------------|-----------------|-----------------|-----------------|
G|---------------5-|---5-x-----------|---------------5-|---5-x-----------|
D|---7-x-3---3-x-5-|---5-x-5---5-x-7-|---7-x-3---3-x-5-|---5-x-5---5-x-2-|
A|---7-x-3---3-x-3-|---3-x-5---5-x-7-|---7-x-3---3-x-3-|---3-x-5---5-x-2-|
D|---7-x-3---3-x---|-------5---5-x-7-|---7-x-3---3-x---|-------5---5-x-2-|



   1 + 2 + 3 + 4 +   1 + 2 + 3 + 4 +   1 + 2 + 3 + 4 +   1 + 2 + 3 + 4 +
E|-----------------|-----------------|-----------------|-----------------|
B|-----------------|-----------------|-----------------|-----------------|
G|-5---5-5-5-5-5-5-|-5-5-5-5-5-5-5-7-|-9---9-9-9-9-9-9-|-9-9-9-9-9-9-9-9-|
D|-x---x-x-x-x-x-x-|-x-x-x-x-x-x-x-x-|-x---x-x-x-x-x-x-|-x-x-x-x-x-x-x-x-|
A|-3---3-3-3-3-3-3-|-3-3-3-3-3-3-3-5-|-7---7-7-7-7-7-7-|-7-7-7-7-7-7-7-7-|
D|-----------------|-----------------|-----------------|-----------------|
 |
 |
 | 1 + 2 + 3 + 4 +   1 + 2 + 3 + 4 +   1 + 2 + 3 + 4 +   1 + 2 + 3 + 4 +
E|-----------------|-----------------|-----------------|-----------------|
B|-----------------|-----------------|-----------------|-----------------|
G|-----------------|-----------------|-----------------|-----------------|
D|-3---3-3-3-3-3-3-|-3-3-3-3-3-3-3-3-|-3---3-3-3-3-3-3-|-3-3-3-3-3-3-3-3-|
A|-3---3-3-3-3-3-3-|-3-3-3-3-3-3-3-3-|-3---3-3-3-3-3-3-|-3-3-3-3-3-3-3-3-|
D|-3---3-3-3-3-3-3-|-3-3-3-3-3-3-3-3-|-3---3-3-3-3-3-3-|-3-3-3-3-3-3-3-3-|
       . . . . . .   . . . . . . . .       . . . . . .   . . . . . . . .



   1 + 2 + 3 + 4 +   1 + 2 + 3 + 4 +   1 + 2 + 3 + 4 +   1 + 2 + 3 + 4 +
E|-----------------|-----------------|-----------------|-----------------|
B|-----------------|-----------------|-----------------|-----------------|
G|-----------------|-----------------|-----------------|-----------------|
D|-----------------|-----------------|-----------------|-----------------|
A|-----------------|-----------------|-----------------|-----------------|
D|-----------------|-----------------|-----------------|-----------------|
 |
 |
 | 1 + 2 + 3 + 4 +   1 + 2 + 3 + 4 +   1 + 2 + 3 + 4 +   1 + 2 + 3 + 4 +
E|-----------------|-----------------|-----------------|-----------------|
B|-----------------|-----------------|-----------------|-----------------|
G|-5---5---5---5---|-5---5---5---5---|-5---5---5---5---|-5---5-----5-4---|
D|---2---2---2---2-|---3---3---3---3-|-----------------|---2---3-5-----5-|
A|-----------------|-----------------|---3---3---3---3-|-----------------|
D|-----------------|-----------------|-----------------|-----------------|
   . . . . . . . .   . . . . . . . .   . . . . . . . .   . . . . . . . .



   1 + 2 + 3 + 4 +   1 + 2 + 3 + 4 +   1 + 2 + 3 + 4 +   1 + 2 + 3 + 4 +
E|-----------------|-----------------|-----------------|-----------------|
B|-----------------|-----------------|-----------------|-----------------|
G|-----------------|-----------------|-----------------|-----------------|
D|-----5-----------|-----------------|-----------------|-----------------|
A|-----------------|-----------------|-----------------|-----------------|
D|-----------------|-----------------|-----------------|-----------------|
 |     +
 |
 | 1 + 2 + 3 + 4 +   1 + 2 + 3 + 4 +   1 + 2 + 3 + 4 +   1 + 2 + 3 + 4 +
E|-----------------|-----------------|-----------------|-----------------|
B|-----------------|-----------------|-----------------|-----------------|
G|-5---5---5---5---|-5---5---5---5---|-5---5---5---5---|-5---5-----5-4---|
D|---2---2---2---2-|---3---3---3---3-|-----------------|---2---3-5-----5-|
A|-----------------|-----------------|---3---3---3---3-|-----------------|
D|-----------------|-----------------|-----------------|-----------------|
   . . . . . . . .   . . . . . . . .   . . . . . . . .   . . . . . . . .



   1 + 2 + 3 + 4 +   1 + 2 + 3 + 4 +   1 + 2 + 3 + 4 +   1 + 2 + 3 + 4 +
E|-----------------|-----------------|-----------------|-----------------|
B|-----------------|-----------------|-----------------|-----------------|
G|-----------------|-----------------|-----------------|-----------------|
D|-----------------|-----------------|-----------------|-----------------|
A|-----------------|-----------------|-----------------|---------3-3-----|
D|-----------------|-----------------|-----------------|---------3-3-----|
 |                                                               . .
 |
 | 1 + 2 + 3 + 4 +   1 + 2 + 3 + 4 +   1 + 2 + 3 + 4 +   1 + 2 + 3 + 4 +
E|-----------------|-----------------|-----------------|-----------------|
B|-----------------|-----------------|-----------------|-----------------|
G|-5---5---5---5---|-5---5---5---5---|-5---5---5---5-5-|---5---5-----5---|
D|---2---2---2---2-|---3---3---3---3-|---3---3---3---3-|---3---3-----3---|
A|-----------------|-----------------|-----------------|---------3-3-----|
D|-----------------|-----------------|-----------------|---------3-3-----|
   . . . . . . . .   . . . . . . . .                             . .


Chorus

   1 + 2 + 3 + 4 +   1 + 2 + 3 + 4 +   1 + 2 + 3 + 4 +   1 + 2 + 3 + 4 +
E|-----------------|-----------------|-----------------|-----------------|
B|-----------------|-----------------|-----------------|-----------------|
G|-----------------|-----------------|-----------------|-----------------|
D|-5-5-------------|-----------------|-7p5h7-7-7-7-7p5-|-7-7-7-7-7-5-5-5-|
A|-3-3-------------|-----------------|-7p5h7-7-7-7-7p5-|-7-7-7-7-7-5-5-5-|
D|-----------------|-----------------|-7p5h7-7-7-7-7p5-|-7-7-7-7-7-5-5-5-|
 | . . 
 |
 | 1 + 2 + 3 + 4 +   1 + 2 + 3 + 4 +   1 + 2 + 3 + 4 +   1 + 2 + 3 + 4 +
E|-----------------|-----------------|-----------------|-----------------|
B|-----------------|-----------------|-----------------|-----------------|
G|-------------5-\-|-----------------|-----------------|-----------------|
D|-5-5---------5-\-|-5-5-5-5-5-5-5-5-|-7p5h7-7-7-7-7p5-|-7-7-7-7-7-5-5-5-|
A|-3-3---------3-\-|-5-5-5-5-5-5-5-5-|-7p5h7-7-7-7-7p5-|-7-7-7-7-7-5-5-5-|
D|-----------------|-5-5-5-5-5-5-5-5-|-7p5h7-7-7-7-7p5-|-7-7-7-7-7-5-5-5-|
   . .



   1 + 2 + 3 + 4 +   1 + 2 + 3 + 4 +   1 + 2 + 3 + 4 +   1 + 2 + 3 + 4 +
E|-----------------|-----------------|-----------------|-----------------|
B|-5---5---8---8---|-5---5---8---8---|-5---5---8---8---|-5---5---8---8---|
G|---5---5---5---5-|---5---5---5---5-|---5---5---5---5-|---5---5---5---5-|
D|-----------------|-----------------|-----------------|-----------------|
A|-----------------|-----------------|-----------------|-----------------|
D|-----------------|-----------------|-----------------|-----------------|
 |
 |
 | 1 + 2 + 3 + 4 +   1 + 2 + 3 + 4 +   1 + 2 + 3 + 4 +   1 + 2 + 3 + 4 +
E|-----------------|-----------------|-----------------|-----------------|
B|-----------------|-----------------|-----------------|-----------------|
G|-5-5-5-5-5-5-5-5-|-----------------|-----------------|-----------------|
D|-5-5-5-5-5-5-5-5-|-5-5-5-5-5-5-5-5-|-3-3-3-3-3-3-3-3-|-3-3-3-3-3-3-3-3-|
A|-3-3-3-3-3-3-3-3-|-5-5-5-5-5-5-5-5-|-3-3-3-3-3-3-3-3-|-3-3-3-3-3-3-3-3-|
D|-----------------|-5-5-5-5-5-5-5-5-|-3-3-3-3-3-3-3-3-|-3-3-3-3-3-3-3-3-|
                                           . . . . . .   . . . .


Outro

   1 + 2 + 3 + 4 +   1 + 2 + 3 + 4 +   1 + 2 + 3 + 4 +   1 + 2 + 3 + 4 +
E|-----------------|-----------------|-----------------|-----------------|
B|-----------------|-----------------|-----------------|-----------------|
G|-9-9-9-9-9-9-9-t-|-7-7-7-7-7-7-7-7-|-5-4-5-5-5-5-5-4-|-5-5-5-5-5-4-4-4-|
D|-x-x-x-x-x-x-x-x-|-x-x-x-x-x-x-x-x-|-x-x-x-x-x-x-x-x-|-x-x-x-x-x-x-x-x-|
A|-7-7-7-7-7-7-7-8-|-5-5-5-5-5-5-5-5-|-3-2-3-3-3-3-3-2-|-3-3-3-3-3-2-2-2-|
D|-----------------|-----------------|-----------------|-----------------|
 |
 |
 | 1 + 2 + 3 + 4 +   1 + 2 + 3 + 4 +   1 + 2 + 3 + 4 +   1 + 2 + 3 + 4 +
E|-----------------|-----------------|-----------------|-----------------|
B|-----------------|-----------------|-----------------|-----------------|
G|-5-5-5-5-5-5-5-5-|-----------------|-----------------|-----------------|
D|-5-5-5-5-5-5-5-5-|-5-5-5-5-5-5-5-5-|-7p5h7-7-7-7-7p5-|-7-7-7-7-7-5-5-5-|
A|-3-3-3-3-3-3-3-3-|-5-5-5-5-5-5-5-5-|-7p5h7-7-7-7-7p5-|-7-7-7-7-7-5-5-5-|
D|-----------------|-5-5-5-5-5-5-5-5-|-7p5h7-7-7-7-7p5-|-7-7-7-7-7-5-5-5-|



   1 + 2 + 3 + 4 +   1 + 2 + 3 + 4 +   1 + 2 + 3 + 4 +   1 + 2 + 3 + 4 + 
E|-----------------|-----------------|-----------------|-----------------|
B|-----------------|-----------------|-----------------|-----------------|
G|-9-9-9-9-9-9-9-t-|-7-7-7-7-x-x-x-9-|---9-x-5---5-x-9-|---9-x-7---7-x-9-|
D|-x-x-x-x-x-x-x-x-|-x-x-x-x-x-x-x-x-|---x-x-x---x-x-x-|---x-x-x---x-x-x-|
A|-7-7-7-7-7-7-7-8-|-5-5-5-5-x-x-x-7-|---7-x-3---3-x-7-|---7-x-5---5-x-7-|
D|-----------------|-----------------|-----------------|-----------------|
 |
 |
 | 1 + 2 + 3 + 4 +   1 + 2 + 3 + 4 +   1 + 2 + 3 + 4 +   1 + 2 + 3 + 4 +
E|-----------------|-----------------|-----------------|-----------------|
B|-----------------|-----------------|-----------------|-----------------|
G|-5-5-5-5-5-5-5-5-|-----------------|---------------5-|---5-x-----------|
D|-5-5-5-5-5-5-5-5-|-5-5-5-5-x-x-x-7-|---7-x-3---3-x-5-|---5-x-5---5-x-7-|
A|-3-3-3-3-3-3-3-3-|-5-5-5-5-x-x-x-7-|---7-x-3---3-x-3-|---3-x-5---5-x-7-|
D|-----------------|-5-5-5-5-x-x-x-7-|---7-x-3---3-x---|-------5---5-x-7-|



   1 + 2 + 3 + 4 +   1 + 2 + 3 + 4 +   1 + 2 + 3 + 4 +   1 + 2 + 3 + 4 +
E|-----------------|-----------------|-----------------|-----------------|
B|-----------------|-----------------|-----------------|-----------------|
G|---9-x-5---5-x-9-|---9-x-7---7-x-9-|---9-x-5---5-x-9-|---9-x-7---7-x-4-|
D|---x-x-x---x-x-x-|---x-x-x---x-x-x-|---x-x-x---x-x-x-|---x-x-x---x-x-x-|
A|---7-x-3---3-x-7-|---7-x-5---5-x-7-|---7-x-3---3-x-7-|---7-x-5---5-x-2-|
D|-----------------|-----------------|-----------------|-----------------|
 |
 |
 | 1 + 2 + 3 + 4 +   1 + 2 + 3 + 4 +   1 + 2 + 3 + 4 +   1 + 2 + 3 + 4 +
E|-----------------|-----------------|-----------------|-----------------|
B|-----------------|-----------------|-----------------|-----------------|
G|---------------5-|---5-x-----------|---------------5-|---5-x-----------|
D|---7-x-3---3-x-5-|---5-x-5---5-x-7-|---7-x-3---3-x-5-|---5-x-5---5-x-2-|
A|---7-x-3---3-x-3-|---3-x-5---5-x-7-|---7-x-3---3-x-3-|---3-x-5---5-x-2-|
D|---7-x-3---3-x---|-------5---5-x-7-|---7-x-3---3-x---|-------5---5-x-2-|



   1 + 2 + 3 + 4 +   1 + 2 + 3 + 4 +   1 + 2 + 3 + 4 +   1 + 2 + 3 + 4 +
E|-----------------|-----------------|-----------------|-----------------|
B|-----------------|-----------------|-----------------|-----------------|
G|-5-5-5-5-7-7-7-7-|-9-9-9-9-t-t-t-t-|-9-9-9-9-9-9-9-9-|-x-x-x-x-x-5-5-5-|
D|-x-x-x-x-x-x-x-x-|-x-x-x-x-x-x-x-x-|-x-x-x-x-x-x-x-x-|-x-x-x-x-x-x-x-x-|
A|-3-3-3-3-5-5-5-5-|-7-7-7-7-8-8-8-8-|-7-7-7-7-7-7-7-7-|-x-x-x-x-x-3-3-3-|
D|-----------------|-----------------|-----------------|-----------------|
 |
 |
 | 1 + 2 + 3 + 4 +   1 + 2 + 3 + 4 +   1 + 2 + 3 + 4 +   1 + 2 + 3 + 4 +
E|-----------------|-----------------|-----------------|-----------------|
B|-----------------|-----------------|-----------------|-----------------|
G|-----------------|-----------------|-----------------|-----------------|
D|-3---3-3-3-3-3-3-|-3-3-3-3-3-3-3-3-|-3---3-3-3-3-3-3-|-3-3-3-3-3-2-2-3-|
A|-3---3-3-3-3-3-3-|-3-3-3-3-3-3-3-3-|-3---3-3-3-3-3-3-|-3-3-3-3-3-2-2-3-|
D|-3---3-3-3-3-3-3-|-3-3-3-3-3-3-3-3-|-3---3-3-3-3-3-3-|-3-3-3-3-3-2-2-3-|
       . . . . . .   . . . . . . . .       . . . . . .   . . . . .


End On

   1 + 2 + 3 + 4 +
E|-----------------|
B|-----------------|
G|-5---5---5---5~--|
D|-x---x---x---x~--|
A|-3---3---3---3~--|
D|-----------------|
 |
 |
 | 1 + 2 + 3 + 4 +
E|-----------------|
B|-----------------|
G|-----------------|
D|-3---3---3---3~--|
A|-3---3---3---3~--|
D|-3---3---3---3~--|


there you go... enjoy!
Related for Of All The Gin Joints In All The World tab