Guitaretab - guitar tabs
Song name
# A B C D E F G H I J K L M N O P Q R S T U V W X Y Z

Fall Out Boy - Sophmore Slump Or Comeback Of The Year tab

Song: Sophomore Slump or Comeback Of The Year 
Band: Fall Out Boy

Tabbed By: Stephen Adams 
Tuning: EADGBe (standard)

* = palm mute 
/ = slide 
\ = slide 

the first two tabs for this song were pretty good but they left out parts and had
some mistakes. this should be right.


Intro (palm mute): 
e|-------------------------------------------------------------|
B|-------------------------------------------------------------|
G|-44444444-33333333---------------------44444444-33333333-----|
D|-44444444-44444444-22222222-6666-2222--44444444-44444444--2~-|
A|-22222222-11111111-22222222-6666-2222--22222222-11111111--2~-|
E|-------------------00000000-4444-0000---------------------0~-|


Verse 1: Guitar 1
e|------------------------|
B|------------------------|
G|------------4444--------|
D|-66-42-244-4444--------|x8
A|-66-42-244-2222--------|
E|-44-20-02-2-------------|


Verse 1: Guitar 2 (those are 11's and 12's, NOT 1's and 2's)
e|-------------------------------------|
B|-12121212-12-11-11-12121212----------|
G|-11111111-11-11-11-11111111----------|
D|-------------------------------------|x4
A|-------------------------------------|
E|-------------------------------------|


Pre Chorus (palm mute):
e|-----------------------------------------------|
B|-----------------------------------------------|
G|-------------------33333333-44444444-----------|
D|-22222222-44444444-44444444-44444444-----------|
A|-22222222-44444444-11111111-22222222-----------|
E|-00000000-22222222-----------------------------|


Pre Chorus Cont. (palm mute):
e|-----------------------------------------------|
B|-----------------------------------------------|
G|-------------------44444444-66666666-----------|
D|-22222222-44444444-44444444-66666666-----------|
A|-22222222-44444444-22222222-44444444-----------|
E|-00000000-22222222-----------------------------|


Chorus:
e|----------------------------------------|
B|----------------------------------------|
G|-44444444-33333333----------------------|
D|-44444444-44444444-22222222-6666-2222---|x2
A|-22222222-11111111-22222222-6666-2222---|
E|-------------------00000000-4444-0000---|


Pre Verse:
e|-------------------------|
B|-------------------------|
G|------------444-4--------|
D|-66-42-244-444-4--------|
A|-66-42-244-222-2--------|
E|-44-20-02-2--------------|
              ***

Verse 2: Guitar 1
e|---------------------------------|
B|---------------------------------|
G|-4-4/6/8--8/11--11/8-8----------|
D|-x-x/x/x--x/x---x-/x-x----------|x8
A|-2-2/4/6---6/9---9-/6-6----------|
E|---------------------------------|

[ Tab from: http://www.guitaretab.com/f/fall-out-boy/60137.html ]
Verse 2: Guitar 2 
e|------------------------|
B|------------------------|
G|------------4444--------|
D|-66-42-244-4444--------|x4
A|-66-42-244-2222--------|
E|-44-20-02-2-------------|


Verse 2: Guitar 3 (again, 11's and 12's)
e|-------------------------------------|
B|-12121212-12-11-11-12121212----------|
G|-11111111-11-11-11-11111111----------|
D|-------------------------------------|x4
A|-------------------------------------|
E|-------------------------------------|


Pre Chorus (palm mute):
e|-----------------------------------------------|
B|-----------------------------------------------|
G|-------------------44444444-66666666-----------|
D|-22222222-44444444-44444444-66666666-----------|
A|-22222222-44444444-22222222-44444444-----------|
E|-00000000-22222222-----------------------------|


Chorus:
e|----------------------------------------|
B|----------------------------------------|
G|-44444444-33333333----------------------|
D|-44444444-44444444-22222222-6666-2222---|x2
A|-22222222-11111111-22222222-6666-2222---|
E|-------------------00000000-4444-0000---|


After Second Chorus: "there's a drug in the..."
e|----------------------------------------|
B|----------------------------------------|
G|-44444444-33333333----------------------|
D|-44444444-44444444-22222222-6666-2222---|x2
A|-22222222-11111111-22222222-6666-2222---|
E|-------------------00000000-4444-0000---|


Brigde: 
e|--------------|
B|--------------|
G|-4~-----------|
D|-x~-----------|
A|-2~-----------|
E|--------------|
                 

Bridge Cont. "the best part of believe..."
e|---------------------------------------------|
B|---------------------------------------------|
G|-4--4-------------------22222222-------------|
D|-4-4-x-alot---55555555-22222222-------------|
A|-2--2----------55555555-00000000-------------|
E|---------------33333333----------------------|
      *

Bridge Cont.
e|---------------------------------------------|
B|---------------------------------------------|
G|-4-------------------22222222----------------|
D|-4-x-alot---55555555-22222222----------------|
A|-2----------55555555-00000000----------------|
E|------------33333333-------------------------|


3rd Chorus:
e|-----------------------------------------|
B|-----------------------------------------|
G|-4~--------------------------------------|
D|-4~------22222222-6666-2222--------------|
A|-2~------22222222-6666-2222--------------|
E|---------00000000-4444-0000--------------|


3rd Chorus Cont. (End):
e|---------------------------------------------------------------|
B|---------------------------------------------------------------|
G|-44444444-33333333---------------------44444444-33333333-------|
D|-44444444-44444444-22222222-6666-2222--44444444-44444444---2~--|
A|-22222222-11111111-22222222-6666-2222--22222222-11111111---2~--|
E|-------------------00000000-4444-0000----------------------0~--|


have fun.
Related for Sophmore Slump Or Comeback Of The Year tab