Song name
# A B C D E F G H I J K L M N O P Q R S T U V W X Y Z

Fall Out Boy - Get Busy Living Or Get Busy Dying Acoustic tab

Artist: Fall Out Boy
Song Title: Get Busy Living Or Get Busy Dying
Album Title: From Under The Cork Tree

Verse pt 1:

   Em          Am7         B7          Em
|--0-0-0-0-0---0-0-0-0-0---2-2-2-2-2---0-0-0-0-0---|
|--0-0-0-0-0---1-1-1-1-1---0-0-0-0-0---0-0-0-0-0---|
|--0-0-0-0-0---0-0-0-0-0---2-2-2-2-2---0-0-0-0-0---|
|--2-2-2-2-2---2-2-2-2-2---1-1-1-1-1---2-2-2-2-2---|
|--2-2-2-2-2---0-0-0-0-0---2-2-2-2-2---2-2-2-2-2---|   x2
|--0-0-0-0-0---x-x-x-x-x---x-x-x-x-x---0-0-0-0-0---|

Verse pt 2:

   B7              Em        Em
|--2-2-2-2-2-2-----0-0-0-0---0-0-0-----|
|--0-0-0-0-0-0-----0-0-0-0---0-0-0-----|
|--2-2-2-2-2-2-----0-0-0-0---0-0-0-----|
|--1-1-1-1-1-1-----2-2-2-2---2-2-2-----|
|--2-2-2-2-2-2-----2-2-2-2---2-2-2-----|   x2
|--x-x-x-x-x-x-3-2-0-0-0-0---0-0-0-2-3-|
              (^ Runs are unecessary ^)

Verse to Chorus (Your Secret's Out):

  C        B7
|-0-00-0---2-xx-2-xx-2----------------------------|
|-1-11-1---0-xx-0-xx-0----------------------------|
|-0-00-0---2-xx-0-xx-0----------------------------|
|-2-22-2---1-xx-1-xx-1----------------------------|
|-3-33-3---2-xx-2-xx-2----------------------------|
|-x-xx-x---x-xx-x-xx-x----------------------------|

Chorus:

  C       G         B7
|-0-00-0--3-3-33-3--2-2-22-2--2-2-22-2--|
|-1-11-1--3-3-33-3--0-0-00-0--0-0-00-0--|
|-0-00-0--0-0-00-0--2-2-22-2--2-2-22-2--|
|-2-22-2--0-0-00-0--1-1-11-1--1-1-11-1--|
|-3-33-3--1-1-11-1--2-2-22-2--2-2-22-2--|
|-x-xx-x--2-2-22-2--x-x-xx-x--x-x-xx-x--|

  C       G         B7        Em
|-0-00-0--3-3-33-3--2-2-22-2--0-0-00-0--|
|-1-11-1--3-3-33-3--0-0-00-0--0-0-00-0--|
|-0-00-0--0-0-00-0--2-2-22-2--0-0-00-0--|
|-2-22-2--0-0-00-0--1-1-11-1--2-2-22-2--|
|-3-33-3--1-1-11-1--2-2-22-2--2-2-22-2--|
|-x-xx-x--2-2-22-2--x-x-xx-x--0-0-00-0--|

  C        B7
|-0-00-0---2-xx-2-xx-2------------------|
|-1-11-1---0-xx-0-xx-0------------------|
|-0-00-0---2-xx-0-xx-0------------------|
|-2-22-2---1-xx-1-xx-1------------------|
|-3-33-3---2-xx-2-xx-2------------------|
|-x-xx-x---x-xx-x-xx-x------------------|

Chorus to Verse:

|------------------------------|
|------------------------------|
|------------------------------|
|--------00--------------------|
|-----------33333333-22222222--|
|-000000-----------------------|

Bridge pt 1:

|--------------------------------------|
|--------------------------------------|
|--------------------------------------|
|--------00----------------------------|
|-----------33333333-22222222----------| x 4
|-000000----------------------00000000-|

Bridge pt 2:

|----------------------------------------|
|---------33-----------------------------|
|---------00-55555555-44444444-----------|
|--222222----55555555-44444444-22222222--|
|--222222----33333333-22222222-22222222--| x2
|--000000----------------------00000000--|


Verse pt 1
Verse pt 2
Verse to Chorus
Chorus
Chorus to Verse
Verse pt 1
Verse pt 2
Verse to Chorus
Chorus
Bridge pt 1
Bridge pt 2
Chorus (let Em ring out at the end)


<3 Germaine
Tap to rate this tab
# A B C D E F G H I J K L M N O P Q R S T U V W X Y Z