Song name
# A B C D E F G H I J K L M N O P Q R S T U V W X Y Z

Fall Out Boy - I Slept With Someone In Fall Out Boy And All I Got Was A Stupid Song Written About Me tab

Help us improve GuitareTab! Take a short survey!
this song is ill, it is tougher to play because of the strumming, but here it is

song is dropped to D

Intro(Esus)(G) (B)
e-----------------------------------------|
B-----------------------------------------|
G-------4---------------------------------|
D-------2---5---99------------------------|
A-------2---5---99------------------------|
D-------2---5---99------------------------|

   (B)    (D)                   (Gsus)          (Esus)
e----------------------------------------------------------------|
B----------------------------------------------------------------|
G--4-4-4---7-7-------2-----------------------44-4-44-4-4-4-------|last time
D--4-4-4---7-7---2/4---0-0----77-7-77-7-7-7--22-2-22-2-2-2-------|end on the
A--2-2-2---5-5----------------55-5-55-5-5-5--22-2-22-2-2-2-------|Gsus
D-----------------------------55-5-55-5-5-5--22-2-22-2-2-2-------|
                           pm...   ..   .    ..   ..   .

Interlude
   (Bsus)(D) (G) (D)  (A) (Bsus)  (G)(D)
e-----------------------------------------------------------------|
B-----------------------------------------------------------------|
G--111111------------------111111---------------------------------|
D--9-9-9--000-555-00--777--9-9-9--555-00--------------------------|
A--9-9-9--000-555-00--777--9-9-9--555-00--------------------------|
D--9-9-9--000-555-00--777--9-9-9--555-00--------------------------|

Verse:the strumming is tough, figure this part out
   (Bsus) (Dsus) (Gsus) (Esus)
e--------------------------------------------------------------------------|
B--------------------------------------------------------------------------|
G--1111111--2222--7777--4444-----------------------------------------------|
D--9-9-9-9--0000--5555--2222-----------------------------------------------|
A--9-9-9-9--0000--5555--2222-----------------------------------------------|
D--9-9-9-9--0000--5555--2222-----------------------------------------------|

Chorus:strumming is easy to figure out

e---------------------------------------------------------------|
B---------------------------------------------------------------|
G-4----11---4-6-7-11-9-7xx--------------------------------------|
D-2-5--9--0-2-4-5-9--7-5xx0-------------------------------------|
A-2-5--9--0-2-4-5-9--7-5xx0-------------------------------------|
D-2-5--9--0-2-4-5-9--7-5xx0-------------------------------------|

Bridge:All down strokes, easy, just listen

e----------------------------------------------------------------|
B----------------------------------------------------------------|
G-4--------------------------------------------------------------|
D-2-5--99-99999999-99-99999999-----------------------------------|
A-2-5--99-99999999-99-99999999-----------------------------------|
D-2-5--99-99999999-99-99999999-----------------------------------|
          pm......    pm......

chords and strumming switch here
e---------------------------------------------------------------|
B---------------------------------------------------------------|
G--11111111xx----------7777xx--4xx------------------------------|
D--9-9-9-9-xx--0000xx--5555xx--2xx------------------------------|
A--9-9-9-9-xx--0000xx--5555xx--2xx------------------------------|
D--9-9-9-9-xx--0000xx--5555xx--2xx------------------------------|

solo: played during those chords^, its pretty sick(play 2x)

e-----------------5---------------------------------------------|
B-0-7p0-7p0-7-5p3---5/7-0-5p0-7-0--3h5/7-0-3h5/7----------------|
G---------------------------------------------------------------|
D---------------------------------------------------------------|
A---------------------------------------------------------------|
D---------------------------------------------------------------|

e-----------------5-----------------------[12]-------------------------|
B-0-7p0-7p0-7-5p3---5/7-0 5p0-7-0-3/--[12]-----------------------------|
G----------------------------------------------------------------------|
D----------------------------------------------------------------------|
A----------------------------------------------------------------------|
D----------------------------------------------------------------------|

Chorus:play 2x

e---------------------------------------------------------------|
B---------------------------------------------------------------|
G-4----11---4-6-7-11-9-7xx--------------------------------------|
D-2-5--9--0-2-4-5-9--7-5xx0-------------------------------------|
A-2-5--9--0-2-4-5-9--7-5xx0-------------------------------------|
D-2-5--9--0-2-4-5-9--7-5xx0-------------------------------------|

e---------------------------------------------------------------|
B---------------------------------------------------------------|
G-4----11---4-6-7-11-9------------------------------------------|
D-2-5--9--0-2-4-5-9--7-5/---------------------------------------|
A-2-5--9--0-2-4-5-9--7-5/---------------------------------------|
D-2-5--9--0-2-4-5-9--7-5/---------------------------------------|

thats it, enjoy, pretty ill song, one of my favorites
Related for I Slept With Someone In Fall Out Boy And All I Got Was A Stupid Song Written About Me tab