Guitaretab - guitar tabs
Song name
# A B C D E F G H I J K L M N O P Q R S T U V W X Y Z

Fall Out Boy - Take This To Your Grave tab

Take This To Your Grave

1. Tell That Mick He Just Made My List Of Things To Do Today
2. Dead On Arrival
3. Grand Theft Autumn (Where Is Your Boy)
4. Saturday
5. Homesick At Spacecamp
6. Sending Postcards From A Plane Crash (Wish You Were Here)
7. Chicago Is So Two Years Ago
8. The Pros And Cons Of Breathing
9. Grenade Jumper
10. Calm Before The Storm
11. Reinventing The Wheel To Run Myself Over
12. The Patron Saint Of Liars And Fakes
============================================================================
band: Fall Out Boy
song: Tell That Mick He Just Made My List of Things to do Today

x=quick stop
/=slide
~=let ring

Standard Tuning

Intro
E|-----------------|
B|-----------------|
G|-----------------|
D|-2222222222222222
A|-2222222222222222
E|-0000000000000000

Then

E|-4444-5555-0000-2222-0000-2222-0000-2222-|
B|-5555-5555-4444-4444-2222-2222-2222-2222-|
G|-----------------------------------------|
D|-----------------------------------------|
A|-----------------------------------------|
E|-----------------------------------------|

One guitar does that twice, then at second guitar comes in with a pickslide then this

E|------------------------------------|
B|------------------------------------|
G|------------------44444444-66666666-|
D|-22~--22-22222222-44444444-66666666-|
A|-22~--22-22222222-22222222-44444444-|
E|-00~--00-00000000-------------------|
           |       palm  mute        |

Verse  x4  "light that smoke..."
E|--------------------------------------|
B|--------------------------------------|
G|----------66666666--------------------|
D|-22222222-66666666-66666666-7777777/9-|
A|-22222222-44444444-66666666-7777777/9-|
E|-00000000----------44444444-5555555/7-|

Next part  x2  "I hope you choke..."
E|-----------------------------------------|
B|-----------------------------------------|
G|-----------6666-6666---------------------|
D|-2222-2222-6666-6666-7777-7777-7777-7777-|
A|-2222-2222-4444-4444-7777-7777-7777-7777-|
E|-0000-0000-----------5555-5555-5555-5555-|

Pre chorus  x2  "lets play this game..."
E|--------------------------------------------------------------------|
B|--------------------------------------------------------------------|
G|-2222222222222222-66666666-44444444-2222222222222222-666-444-6/4444-|
D|-2222222222222222-66666666-44444444-2222222222222222-666-444-6/4444-|
A|-0000000000000000-44444444-22222222-0000000000000000-444-222-4/2222-|
E|--------------------------------------------------------------------|

Chorus  x2  "so bury me in memory..."
E|--- 0----0----0-----------|
B|----0----0----0-----------|
G|------66------------------|
D|-22---66---66---77-7/9999-|
A|-22---44---66---77-7/9999-|
E|-00--------44---55-5/7777-|

Play this two more times
E|-4444-5555-0000-2222-0000-2222-0000-2222-|
B|-5555-5555-4444-4444-2222-2222-2222-2222-|
G|-----------------------------------------|
D|-----------------------------------------|
A|-----------------------------------------|
E|-----------------------------------------|

No guitar until  "breaking hearts..." then you play this again with the same
timing as the first time you played it

E|------------------------------------|
B|------------------------------------|
G|------------------44444444-66666666-|
D|-22~--22-22222222-44444444-66666666-|
A|-22~--22-22222222-22222222-44444444-|
E|-00~--00-00000000-------------------|
           |       palm  mute        |

Pre Chorus

Chorus

Now he sings the chorus again, but he plays the verse(x2) over it

One guitar does this

E|-----------|
B|-----------|
G|-----------|
D|-2~---222~-|
A|-2~---222~-|
E|-0~---000~-|

And lets the last chord ring while the other does this once

E|-4444-5555-0000-2222-0000-2222-0000-2222-|
B|-5555-5555-4444-4444-2222-2222-2222-2222-|
G|-----------------------------------------|
D|-----------------------------------------|
A|-----------------------------------------|
E|-----------------------------------------|

Then does it again but stops abruptly

E|-4444-5555-0000-2222-0000-2222-0000----|2x
B|-5555-5555-4444-4444-2222-2222-2222----|2x
G|---------------------------------------|
D|---------------------------------------|
A|---------------------------------------|
E|---------------------------------------|

Then do this 4 more times

E|-4444-5555-0000-2222-0000-2222-0000-2222-|
B|-5555-5555-4444-4444-2222-2222-2222-2222-|
G|-----------------------------------------|
D|-----------------------------------------|
A|-----------------------------------------|
E|-----------------------------------------|

And let this chord ring as the last vocals are said

E|---
B|---
G|---
D|-2~
A|-2~
E|-0~
____________________________________________________________________________
Band : Fall Out Boy
Song : Dead On Arrival
Standard Tuning

[Intro]
e|--------------------------------------|------------|
B|--------------------------------------|------------|
G|-------------------(0-4-5-4-0)--------|--^^^^^^^---|
D|---33--777--555------------------(3x)-|--5555555---|
A|---33--777--555-----------------------|--5555555---|
E|---11--555--333-----------------------|--3333333---|


[Verse]
e|---------------------------------------------------|
B|---------------------------------------------------|
G|--55555555--*--------------^^^^^^^^-^-^---^-^------|
D|--55555555--2--3--777777---33333333-3-3---5-5------|
A|--33333333--2--3--777777---33333333-3-3---5-5------|
E|------------0--1--555555---11111111-1-1---3-3------|

e|---------------------------------------------------|
B|---------------------------------------------------|
G|--55555555--*--------------^^^^^^^^-^-^---^-^------|
D|--55555555--2--3--777777---33333333-3-3---6-6------|
A|--33333333--2--3--777777---33333333-3-3---6-6------|
E|------------0--1--555555---11111111-1-1---4-4------|


Play this on *
e|--------------------|
B|---5-3----5-3-------|
G|--------5------5~---| (harmonic)
D|--------------------|
A|--------------------|
E|--------------------|


[Pre-chorus]
e|---------------------------------------------------|
B|---------------------------------------------------|
G|---------------------------------------------------|
D|--77777777--33333333---777777777---3-3-33---555----|
A|--77777777--33333333---777777777---3-3-33---555----|
E|--55555555--11111111---555555555---1-1-11---333----|


[Chorus]
e|---------------------------------------------------|
B|---------------------------------------------------|
G|--55-5---------------------------------------------|
D|--55-5---5--7----33-3---7--5----(4x)---------------|
A|--33-3---5--7----33-3---7--5-----------------------|
E|---------3--5----11-1---5--3-----------------------|


[Solo1]  F - C (4x) - G
e|---------------------------------------------------------------------------|
B|-----------------------33-55--------------------33-------------------------|
G|--55-44-55-44-55-44-55--------44-55-44-55-44-55----55----------------------|
D|---------------------------------------------------------------------------|
A|---------------------------------------------------------------------------|
E|---------------------------------------------------------------------------|

e|---------------------------------------------------------------------------|
B|--------------------33-55--------------------------------------------------|
G|--44-55-44-55-44-55--------44-55-44-55-44-55-------------------------------|
D|---------------------------------------------5~----------------------------|
A|---------------------------------------------------------------------------|
E|---------------------------------------------------------------------------|

[Solo2] -play along the solo1-
e|---------------------------------------------------------------------------|
B|--55-33-55-33-55-33-55-66-55---33-55-33-55-33-55-66-55---------------------|
G|---------------------------------------------------------------------------|
D|---------------------------------------------------------------------------|
A|---------------------------------------------------------------------------|
E|---------------------------------------------------------------------------|

e|---------------------------------------------------------------------------|
B|--33-55-33-55-33-55-66--8--6--5~-------------------------------------------|
G|---------------------------------------------------------------------------|
D|---------------------------------------------------------------------------|
A|---------------------------------------------------------------------------|
E|---------------------------------------------------------------------------|


-repeat verse, pre-chorus, chorus-


[Interlude]
e|-----------------------|-------------------------------------------------------|
B|-----------------------|-------------------------------------------------------|
G|--------------------5~-|-5555--7777--9999--10101010--12121212121212-14-12-7-5~-|
D|--33--77--55--(5x)--5~-|-xxxx--xxxx--xxxx---x-x-x-x---x-x-x-x-x-x-x--x--x-x-x--|
A|--33--77--55--------3~-|-3333--5555--7777---8-8-8-8--10101010101010-12-10-5-3~-|
E|--11--55--33-----------|-------------------------------------------------------|

e|---------------------------------------|---------------------------------------|
B|---------------------------------------|---------------------------------------|
G|--5~-------------------^^^^^^^^^^---55-|--101010101010--/17-17-17-17-17---55---|
D|--5~----33333333333333-3333333333---55-|---x-x-x-x-x-x--/-x--x--x--x--x---xx---|
A|--3~----33333333333333-3333333333---33-|---8-8-8-8-8-8--/15-15-15-15-15---33---|
E|--------11111111111111-1111111111------|---------------------------------------|


[Chorus2]
e|------------------------------------------|
B|------------------------------------------|
G|--55----------------55--------------------|
D|--55--3--7--5--7----55--3--7--5--7--------|
A|--33--3--7--5--7----33--3--7--5--7--------|
E|------1--5--3--5--------1--5--3--5--------|

-repeat chorus-

[Outro]
e|-------|
B|-------|
G|--55---|
D|--55---|
A|--33---|
E|-------|
____________________________________________________________________________
Band: Fall Out Boy
Song:Grand Theft Autumn
Tuning: drop D

intro x6
1st verse x1
intro x1
chorus x1
intro x 4
2nd verse x1
chorus x1
solo x1
bridge x4
post bridge chorus x1
last chorus x1

intro
e|-------------------------------------------------------------------------|
B|-------------------------------------------------------------------------|
G|----6/7777---6/7777----6/777---------------------------------------------|
D|----x-xxxx---x-xxxx----x-xxx---------------------------------------------|
A|----4/5555---4/5555----4/555---------------------------------------------|
D|-------------------------------------------------------------------------|

1st verse
e|-------------------------------------------------------------------------|
B|-------------------------------------------------------------------------|
G|-7--------------7--------------------------------------------------------|
D|-x--7------7----x--7-----7-----------------------------------------------|
A|-5--5---2--5----5--5--2--5-----------------------------------------------|
D|----5---2--5-------5--2--5-----------------------------------------------|

e|-------------------------------------------------------------------------|
B|-------------------------------------------------------------------------|
G|-------------------------------------------------------------------------|
D|-------------------------------------------------------------------------|
A|-55555555--77777777--00000000--44444444---55-55--77-77--00-00------------|
D|-55555555--77777777--00000000--44444444---55-55--77-77--00-00------------|

chorus
e|-------------------------------------------------------------------------|
B|-------------------------------------------------------------------------|
G|-------------------------------------------------------------------------|
D|-------------------------------------------------------------------------|
A|-99-55-00-44-55-77-00-44-55-77--00000000--22222222---5-------------------|
D|-99-55-00-44-55-77-00-44-55-77--00000000--22222222---5-------------------|

2nd verse
e|-------------------------------------------------------------------------|
B|-------------------------------------------------------------------------|
G|-7--------------7--------------------------------------------------------|
D|-x--7------7----x--7-----7-----------------------------------------------|
A|-5--5---2--5----5--5--2--5-----------------------------------------------|
D|----5---2--5-------5--2--5-----------------------------------------------|

e|-------------------------------------------------------------------------|
B|-------------------------------------------------------------------------|
G|-------------------------------------------------------------------------|
D|-------------------------------------------------------------------------|
A|-55555555--77777777--00000000--44444444---55-55--77-77--00-00--4-5/------|
D|-55555555--77777777--00000000--44444444---55-55--77-77--00-00--4-5/------|

solo
e|-------------------------------------------------------------------------|
B|-------------------------------------------------------------------------|
G|-------------------------------------------------------------------------|
D|-------77-7----77-7-------7-7-7---7------77-7----77-7-------77777777-----|
A|--55-5------55------5555-------55---55-5------55-------5555--------------|
D|-------------------------------------------------------------------------|

bridge
e|-------------------------------------------------------------------------|
B|-------------------------------------------------------------------------|
G|-------------------------------------------------------------------------|
D|-------------------------------------------------------------------------|
A|-99999999--77777777--00000000--55555555----------------------------------|
D|-99999999--77777777--00000000--55555555----------------------------------|

post bridge chorus
e|-------------------------------------------------------------------------|
B|-------------------------------------------------------------------------|
G|-------------------------------------------------------------------------|
D|-------------------------------------------------------------------------|
A|-99--55--00--44--55--77--5555-7777-00000000-22222222-55555555------------|
D|-99--55--00--44--55--77--5555-7777-00000000-22222222-55555555------------|

last chorus
e|-------------------------------------------------------------------------|
B|-------------------------------------------------------------------------|
G|-------------------------------------------------------------------------|
D|-------------------------------------------------------------------------|
A|-99-55-00-44-55-77-00-44-55-77--00000000--22222222---5----0--------------|
D|-99-55-00-44-55-77-00-44-55-77--00000000--22222222---5----0--------------|


| /  slide up
| \  slide down
| h  hammer-on
| p  pull-off
| ~  vibrato
| +  harmonic
| x  Mute note
____________________________________________________________________________
band: Fall Out Boy
song: Saturday

x=quick stop
~=let ring

Standard Tuning

Verse
E|---------------------------------------------------------------|
B|---------------------------------------------------------------|
G|---------------------------------------------------------------|
D|-6666666666666666-9999999999999999-2-22-22-22-1111111111111111-|
A|-6666666666666666-9999999999999999-2-22-22-22-1111111111111111-|
E|-4444444444444444-7777777777777777-0-00-00-00-9999999999999999-|

E|-----------------------------------------------------------------|
B|-----------------------------------------------------------------|
G|-----------------------------------------------------------------|
D|-2222222222222222-66-88-99-9999-22222222222222222222222222222222-|
A|-2222222222222222-66-88-99-9999-22222222222222222222222222222222-|
E|-0000000000000000-44-66-77-7777-00000000000000000000000000000000-|

Pre Chorus  x2 (palm mute except for first chord in each group of chords)
E|-------------------------------------|
B|-------------------------------------|
G|-------------------------------------|
D|-66666666-99999999-11111111-99999999-|
A|-66666666-99999999-11111111-99999999-|
E|-44444444-77777777-99999999-77777777-|

Lead to Chorus
E|----------|
B|----------|
G|-------9~-|
D|-4--6--9~-|
A|-4--6--7~-|
E|-2--4-----|

Chorus  x2
E|-----------------------------------------------------|
B|-----------------------------------------------------|
G|-----------------------------------------------------|
D|-9999999999999999-1111111111111111-44444444-22222222-|
A|-9999999999999999-1111111111111111-44444444-22222222-|
E|-7777777777777777-9999999999999999-22222222-00000000-|

Post Chorus  x2
E|-----------------------------------------|
B|-----------------------------------------|
G|-----------------------------------------|
D|-99999x-88888x-11111111-1414141414141414-|
A|-99999x-88888x-11111111-1414141414141414-|
E|-77777x-66666x-99999999-1212121212121212-|

Now play the Pre Chorus, the first time through, play each chord just once and let
it ring, then the second time through, do it with the palm mutes (except on the first
chord of each group of chords, of course)

Play Lead to Chorus followed by a pickslide

Chorus

Post Chorus

Pre Bridge
E|-------------------------------|
B|-------------------------------|
G|-------------9-----------------|
D|-9~-2~-4~-6~-9-9-6-2~-4~-6-----|9x
A|-9~-2~-4~-6~-7-9-6-2~-4~-6-----|9x
E|-7~-0~-2~-4~---7-4-0~-2~-4-----|7x

Bridge  x4
E|-------------------------------------|
B|-------------------------------------|
G|-------------------------------------|
D|-22222222-44444444-66666666-99999999-|
A|-22222222-44444444-66666666-99999999-|
E|-00000000-22222222-44444444-77777777-|

Post Bridge
E|-------------------------------------|
B|-------------------------------------|
G|-------------------------------------|
D|-9~--/             \---1111-14141414-|
A|-9~-/ acoustic fill \--1111-14141414-|
E|-7~-\               /--9999-12121212-|

Chorus  x1

Post Chorus x4

Ending
E|----------|
B|----------|
G|-------9~-|
D|-4-6-9-9~-|
A|-4-6-9-7~-|
E|-2-4-7----|
____________________________________________________________________________
band: Fall Out Boy
song: Homesick At Spacecamp
Tuning: Drop D

Intro
e|---------------------------------------------------------------------------|
B|---------------------------------------------------------------------------|
G|---------------------------------------------------------------------------|
D|--4--7--4---6-7---12(4x)-14--12-0000000------4--7--4--6--7--12(4x)--14--0--|
A|--4--7--4---6-7---9------11--12-0000000------4--7--4--6--7--9-------11--0--|
D|--4--7--4---6 7---9------11--12-0000000------4--7--4--6--7--9-------11--0--|

Verse
e|---------------------------------------------------------------------------|2x
B|---------------------------------------------------------------------------|
G|-----------------------------------------14-14-14-13-9---------------------|
D|--4-4x(14x)----7-7x(14x)----12-12x(14x)--0--0--0--0--0---------------------|
A|--4-4x---------7-7x---------9--9x--------0--0--0--0--0---------------------|
D|--4-4x---------7-7x---------9--9x--------0--0--0--0--0---------------------|


e|---------------------------------------------------------------------------|
B|---------------------------------------------------------------------------|
G|-----------------------------7(6x)-----------------------------------------|
D|--4-4x(14x)----7-7x(6x)---0--x------4-4x(14x)--7--6--0--0x0x0x-------------|
A|--4-4x---------7-7x-------0--5------4-4x-------7--6--0--0x0x0x-------------|
D|--4-4x---------7-7x-------0---------4-4x-------7--6--0--0x0x0x-------------|

Chorus
e|---------------------------------------------------------------------------|2x
B|---------------------------------------------------------------------------|
G|---------------------------------------------------------------------------|
D|--9-9-x-x-2-4-4-x-x-4-2-2-x-x-2-4-x-x-2-x-x--------------------------------|
A|--7-7-x-x-4-5-5-x-x-5-4-4-x-x-4-5-x-x-4-x-x--------------------------------|
D|--7-7-x-x-2-4-4-x-x-4-2-2-x-x-2-4-x-x-2-x-x--------------------------------|

e|---------------------------------------------------------------------------|
B|---------------------------------------------------------------------------|
G|-----------------------------7(6x)-----------------------------------------|
D|--4-4x(14x)----7-7x(6x)---0--x------4-4x(14x)--7--6--0---------------------|
A|--4-4x---------7-7x-------0--5------4-4x-------7--6--0---------------------|
D|--4-4x---------7-7x-------0---------4-4x-------7--6--0---------------------|

Bridge       5x
e|-0------|------------------------------------------------------------------|
B|---0-2--|---------0-----------0--------------------------------------------|
G|-------2|-----2-----2-----2-----2-----7-6-2-4-2-4-6-4-2--------------------|
D|--------|---2---2-----2-4---4-----4-0---0-0-0-0-0-0-0-0--------------------|
A|--------|------------------------------------------------------------------|
D|--------|------------------------------------------------------------------|

e|---------------------------------------------------------------------------|
B|--------0------------0-----------------------------------------------------|
G|----2-----2------2-----2------7--6--2--4--2--------------------------------|
D|--2----2-----2-4---4-----4-0x-0x-0--0--0--0--0x-0x-0x----------------------|
A|---------------------------0x-0x-------------0x-0x-0x----------------------|
D|---------------------------0x-0x-------------0x-0x-0x----------------------|

e|---------------------------------------------------------------------------|2x
B|----------5-7-7-x-10-5-5-x-x-7-7-------------------------------------------|
G|----------x-x-x-x--x-x-x-x-x-x-x-------------------------------------------|
D|--9-9-x-x-2-4-4-x--7-2-2-x-x-4-2-------------------------------------------|
A|--7-7-x-x-4-5-5-x--9-4-4-x-x-5-4-------------------------------------------|
D|--7-7-x-x------------------------------------------------------------------|

Order:
Intro
Verse
Chorus
Verse(Without palm mutes)
Chorus
Bridge
First half of Chorus til the end


| /  slide up
| \  slide down
| h  hammer-on
| p  pull-off
| ~  vibrato
| +  harmonic
| x  Mute note
____________________________________________________________________________
Band: Fall Out Boy
Song: Sending Postcards From A Plane Crash
Standard Tuning

Intro-Pt. 1
~Guitar 1~
e:-----------|
B:-----------|
G:-----------|
D:--2-2------|
A:--2-2------|
E:--0-0------|

~Guitar 2~
e:--------------------|
B:--------------------|
G:--9-9--11-11-13-13--|
D:--x-x--x--x--x--x---|
A:--7-7--9--9--11-11--|
E:--------------------|

Intro-Pt. 2
~Guitar 1~
e:---------------------------------------|
B:---------------------------------------|
G:---------------------------------------|
D:--2-2-2-2-2-2-2-2--4-4-4-4--6-6-6-6----|
A:--2-2-2-2-2-2-2-2--4-4-4-4--6-6-6-6----|
E:--0-0-0-0-0-0-0-0--2-2-2-2--4-4-4-4----|

~Guitar 2~
e:---------------------------------------------------|
B:---------------------------------------------------|
G:--16~--9-9--11-11--9-9--11-11--9-9--11-11--9-9--|\-|
D:--x----x-x---x--x--x-x---x--x--x-x--x--x---x-x-----| \
A:--14~--7-7---9--9--7-7---9--9--7-7--9--9---7-7-----|  \
E:---------------------------------------------------|   \
                                                       x2
e:-------------------------------------------------------|   /
B:-------------------------------------------------------|  /
G:--13~--9-9--11-11--9-9--11-11--9-9--11-11--9-9---------| /
D:--x----x-x---x--x--x-x---x--x--x-x--x--x---x-x---------|
A:--11~--7-7---9--9--7-7---9--9--7-7--9--9---7-7--| <--2-|nd time let last note  ring
E:-------------------------------------------------------|

Verse 1-pt.1
~Guitar 1 & 2~
e:----------------------------|
B:----------------------------|
G:----------------------------|
D:--2-2----4-4----6-6----7-7--|
A:--2-2----4-4----6-6----7-7--| x2
E:--0-0----2-2----4-4----5-5--|

Verse 1-pt.2
~Guitar 1~
e:----------------------------------------------------------------------|
B:----------------------------------------------------------------------|x2
G:----------------------------------------------------------------------|
D:--2-2-2-2-2-2-2-2--4-4-4-4-4-4-4-4--6-6-6-6-6-6-6-6--7-7-7-7-7-7-7-7--|last time
A:--2-2-2-2-2-2-2-2--4-4-4-4-4-4-4-4--6-6-6-6-6-6-6-6--7-7-7-7-7-7-7-7--|play the
E:--0-0-0-0-0-0-0-0--2-2-2-2-2-2-2-2--4-4-4-4-4-4-4-4--5-5-5-5-5-5-5-5--|5/7/7 open
 PM ***************  ***************  ***************  ***************

~Guitar 2~
e:------------------|
B:------------------|
G:----1-----1h2p1---| x4
D:--2---2--------2--|
A:------------------|
E:------------------|
 PM * * *

Pre-Chorus
~Guitar 1~
e:------------------------------------------------------------------------------|
B:------------------------------------------------------------------------------|
G:------------------------------------------------------------------------------|
D:--7-7-7-7-7-7-7-7-6-4-4-4-4-4-4-4-4-6-7-7-7-7-7-7-7-7--2-2-2-2--4-4-4-4--6-6--|
A:--7-7-7-7-7-7-7-7-6-4-4-4-4-4-4-4-4-6-7-7-7-7-7-7-7-7--2-2-2-2--4-4-4-4--6-6--|x1.7
E:--5-5-5-5-5-5-5-5-4-2-2-2-2-2-2-2-2-4-5-5-5-5-5-5-5-5--0-0-0-0--2-2-2-2--4-4--|

~Guitar 2~
e:---------------------------------------------------------------------|
B:---------------------------------------------------------------------|
G:--9-9-9-9-9-9-9-9-9-9-9-9-11-13-13-13-13-13-13-13-13-13-13-13-13-14--|
D:--x-x-x-x-x-x-x-x-x-x-x-x-x--x--x--x--x--x--x--x--x--x--x--x--x--x---|
A:--7-7-7-7-7-7-7-7-7-7-7-7-9--11-11-11-11-11-11-11-11-11-11-11-11-12--|
E:---------------------------------------------------------------------|
[ Tab from: http://www.guitaretab.com/f/fall-out-boy/66882.html ]
e:-----------------------------------|
B:-----------------------------------|
G:--13-13-11-9-9-9-9-9-9-9-9-9-9-9/--|
D:--x--x--x--x-x-x-x-x-x-x-x-x-x-x/--| x2
A:--11-11-9--7-7-7-7-7-7-7-7-7-7-7/--|
E:-----------------------------------|

Chorus
~Guitar 1 & 2~
e:--------------------------------------------------|
B:--------------------------------------------------|
G:--------------------------------------------------|
D:--2-2--4-2-1---4-4--4-2-1---6-6--4-2-1---6-6-7-7--| x4
A:--2-2----------4-4----------6-6----------6-6-7-7--|
E:--0-0----------2-2----------4-4----------4-4-5-5--|

Verse 2
~Guitar 1 & 2~
e:-------------------------|
B:-------------------------|
G:---------4~--2~--8~--9~--|
D:--2~~~---4~--2~--x---x---|
A:--2~~~---2~--0~--6~--7~--|
E:--0~~~-------------------|

Bridge
~Guitar 1~
e:----------------------------------------------------------------------|
B:----------------------------------------------------------------------|
G:----------------------------------------------------------------------|
D:--4-4-4-4-4-4-4-4--2-2-2-2-2-2-2-2--7-7-7-7-7-7-7-7--2-2-2-2-2-2-2-2--|
A:--4-4-4-4-4-4-4-4--2-2-2-2-2-2-2-2--7-7-7-7-7-7-7-7--2-2-2-2-2-2-2-2--|
E:--2-2-2-2-2-2-2-2--0-0-0-0-0-0-0-0--5-5-5-5-5-5-5-5--0-0-0-0-0-0-0-0--|

e:-----------------------------------------------------|
B:-----------------------------------------------------|
G:-----------------------------------------------------|
D:--4-4-4-4-4-4-4-4--6-6-6-6-6-6-6-6--7-7-7-7-7-7-7-7--|
A:--4-4-4-4-4-4-4-4--6-6-6-6-6-6-6-6--7-7-7-7-7-7-7-7--|
E:--2-2-2-2-2-2-2-2--4-4-4-4-4-4-4-4--5-5-5-5-5-5-5-5--|

~Guitar 2~
(Refer to the intro. It's way up there. ^)

Solo
~Guitar 1~
e:----------|
B:----------|
G:----------|
D:--2--2-2--|
A:--2--2-2--|
E:--0--0-0--|
 PM *  * *

~Guitar 2~
e:--------------------------------|
B:--------------------------------|
G:1/9p8---------1-2---------------| x2
D:------9-6~--4-----2~--2-1-2-----|
A:----------------------------2~--|
E:--------------------------------|

Post-Chorus
~Guitar 1 & 2~
e:----------------------------------------------------------------|
B:----------------------------------------------------------------|
G:----------------------------------------------------------------|
D:--2--2-2-2-2-2-2-2-2--4--4-4-4-4-4-4-4-4--6-7--7-7-7-7-7-7-7-7--|
A:--2--2-2-2-2-2-2-2-2--4--4-4-4-4-4-4-4-4--6-7--7-7-7-7-7-7-7-7--|
E:--0--0-0-0-0-0-0-0-0--2--2-2-2-2-2-2-2-2--4-5--5-5-5-5-5-5-5-5--|
 PM    * * * * * * * *     * * * * * * * *       * * * * * * * *

E:-----------------------------|
B:-----------------------------|
G:-----------------------------|
D:--2-2-2-2--4-4-4-4--6-6-6-6--|
A:--2-2-2-2--4-4-4-4--6-6-6-6--|
E:--0-0-0-0--2-2-2-2--4-4-4-4--|
____________________________________________________________________________
Band: Fall Out Boy
Song: Chicago Is So Two Years Ago

X - "quick stop"
x - palm mute

Intro

E I----------------I---------------------|I
B I----------------I---------------------|I
G I-5-4------7-9-5-I--5-4-------7-9-5X---|I
D I-------5--------I--------5------------|I
A I----------------I---------------------|I
E I----------------I---------------------|I

Verse 3x

E I----------------------------------------------------------|I
B I----------------------------------------------------------|I
G I---------5--5-5-----------------------5-5-5---------------|I
D I-3--3-3--5--5-5--5-5-5-5-5----2-2-2---5-5-5----3-3-3-3-3--|I
A I-3--3-3--3--3-3--5-5-5-5-5----2-2-2---3-3-3----3-3-3-3-3--|I
E I-1--1-1----------3-3-3-3-3----0-0-0------------1-1-1-1-1--|I
                    x x x x x                     x x x x x

Verse Part 2 - 1x

E I---------------------------------------------------------------|I
B I---------------------------------------------------------------|I
G I---------5-5-5-----------------------5-5-5---------------------|I
D I-3--3-3--5-5-5--5-5-5-5-5----2-2-2---5-5-5----3-3-3-3-3-3-3-3--|I
A I-3--3-3--3-3-3--5-5-5-5-5----2-2-2---3-3-3----3-3-3-3-3-3-3-3--|I
E I-1--1-1---------3-3-3-3-3----0-0-0------------1-1-1-1-1-1-1-1--|I
                   x x x x x                     x x x x x x x x
Post Verse 3x

E I-------------------------------------|I
B I-------------------------------------|I
G I-------------------------------------|I
D I-3-3-3-3--2-2-2-2--5-5-5-5--7-7-7-7--|I
A I-3-3-3-3--2-2-2-2--5-5-5-5--7-7-7-7--|I
E I-1-1-1-1--0-0-0-0--3-3-3-3--5-5-5-5--|I
    x x x x  x x x x  x x x x  x x x x


Pre Chorus

E I-------------------------------|I
B I-------------------------------|I
G I-------------------------------|I
D I-3-3-3-3--2-2-2-2--5-5-5-5-5---|I
A I-3-3-3-3--2-2-2-2--5-5-5-5-5---|I
E I-1-1-1-1--0-0-0-0--3-3-3-3-3---|I
    x x x x  x x x x

Chorus

E I-------------------------I-------------------------------------------------|I
B I-------------------------I-------------------------------------------------|I
G I----------5-5--5---------I-------------------------------------------------|I
D I-7-7--7---5-5--5--3-3--3-I-5-5--5--7-7--7--5-5--5--3--3-3--3--3-3--3--3-3--|I
A I-7-7--7---3-3--3--3-3--3-I-5-5--5--7-7--7--5-5--5--3--3-3--3--3-3--3--3-3--|I
E I-5-5--5-----------1-1--1-I-3-3--3--5-5--5--3-3--3--1--1-1--1--1-1--1--1-1--|I

E I--------------------------------I-----------------------------------|I
B I--------------------------------I-----------------------------------|I
G I---------5-5--5-----------------I---------4-4--4--------------------|I
D I-7--7-7--5-5--5--3--3-3--5-5--5-I-7-7--7--4-4--4--3-3-3-3-3-3-3-3---|I
A I-7--7-7--3-3--3--3--3-3--5-5--5-I-7-7--7--2-2--2--3-3-3-3-3-3-3-3---|I
E I-5--5-5----------1--1-1--3-3--3-I-5-5--5----------1-1-1-1-1-1-1-1---|I

Verse 3x

Verse Part 2 - 1x
Post Verse 3x
Pre Chorus
Chorus

Rest


Bridge

E I------I-------------------|I
B I------I-------------------|I
G I------I-------------------|I
D I-3-3X-I-------------------|I
A I-3-3X-I-----pick slide----|I
E I-1-1X-I-------------------|I

Chorus

End Chorus

E I------------------------I--------------------------------------------------|I
B I------------------------I--------------------------------------------------|I
G I---------5-5--5---------I--------------------------------------------------|I
D I-7-7--7--5-5--5--3-3--3-I-5-5--5--7-7--7--5-5--5--3--3-3--3--3-3--3--3-3---|I
A I-7-7--7--3-3--3--3-3--3-I-5-5--5--7-7--7--5-5--5--3--3-3--3--3-3--3--3-3---|I
E I-5-5--5----------1-1--1-I-3-3--3--5-5--5--3-3--3--1--1-1--1--1-1--1--1-1---|I

E I-------------------------------I----------------------|I
B I-------------------------------I----------------------|I
G I---------5-5-5-----------------I---------4-4--4-------|I
D I-7-7-7---5-5-5--3--3-3--5-5--5-I-7-7--7--4-4--4---3---|-I
A I-7-7-7---3-3-3--3--3-3--5-5--5-I-7-7--7--2-2--2---3---|-I
E I-5-5-5----------1--1-1--3-3--3-I-5-5--5-----------1---|-I
____________________________________________________________________________
band: Fall Out Boy
song: The Pros and Cons of Breathing

x=quick stop
~-let ring

Standard Tuning

Intro
E|----------------------------------|
B|----------------------------------|
G|-------4~----------------4~-------|
D|-6~-2~-4~-4~-2-4---6~-2~-4~-4-----|2x
A|-6~-2~-2~-4~-2-4---6~-2~-2~-4-----|2x
E|-4~-0~----2~-0-2---4~-0~----2-----|0x

Verse part 1  x3
E|-------------------------------|
B|-------------------------------|
G|-------------------------------|
D|-6666-2-4-22-44-6666-2-4-22-44-|
A|-6666-2-4-22-44-6666-2-4-22-44-|
E|-4444-0-2-00-22-4444-0-2-00-22-|

Verse part 2  x1
E|------------------------------------------|
B|------------------------------------------|
G|------------------------------------------|
D|-6666-2-4-22-44-88888888-2222222222222222-|
A|-6666-2-4-22-44-88888888-2222222222222222-|
E|-4444-0-2-00-22-66666666-0000000000000000-|

Chorus  x2
E|------------------------------------------------------------------|
B|------------------------------------------------------------------|
G|------------------------------------------------------------------|
D|-666x-22222222-44444444-2222-4444--666x-88888888-2222222222222222-|
A|-666x-22222222-44444444-2222-4444--666x-88888888-2222222222222222-|
E|-444x-00000000-22222222-0000-2222--444x-66666666-0000000000000000-|

Post Chorus  "stood on my roof..."
E|-------------------------------------------------------------------------------|
B|-------------------------------------------------------------------------------|
G|------------------44444444-6666-8888------------------44-444-666-888-----------|
D|-2222222222222222-44444444-6666-8888-2222222222222222-44-444-666-888-2222222---|2x
A|-2222222222222222-22222222-4444-6666-2222222222222222-22-222-444-666-2222222---|2x
E|-0000000000000000--------------------0000000000000000----------------0000000---|0x

Post Chorus continued
E|-----------------------|
B|-----------------------|
G|-44444444-6666-8888----|
D|-44444444-6666-8888-2~-|
A|-22222222-4444-6666-2~-|
E|--------------------0~-|

Intro riff again
E|----------------------------------|
B|----------------------------------|
G|-------4~----------------4~-------|
D|-6~-2~-4~-4~-2-4---6~-2~-4~-4-----|2x
A|-6~-2~-2~-4~-2-4---6~-2~-2~-4-----|2x
E|-4~-0~----2~-0-2---4~-0~----2-----|0x


Verse part 1 only once, followed by Verse part 2

Chorus

Post Chorus

Then this little Pre Bridge riff
E|----------|
B|----------|
G|----------|
D|-6~-6-----|6x
A|-6~-6-----|6x
E|-4~-4-----|4x

Bridge  x4  "I wish that I was as invisible as you make me feel"
E|-------------------------------------|
B|-------------------------------------|
G|-------------------------------------|
D|-66666666-88888888-99999999-22222222-|
A|-66666666-88888888-99999999-22222222-|
E|-44444444-66666666-77777777-00000000-|

Post Bridge
E|------------|
B|------------|
G|------------|
D|-666x--66---|6x
A|-666x--66---|6x
E|-444x--44---|4x

Last Chorus  x2
E|--------------------------------------------------------------------------|
B|--------------------------------------------------------------------------|
G|--------------------------------------------------------------------------|
D|-66666666-22222222-44444444-2222-4444-66666666-88888888-22222222-44444444-|
A|-66666666-22222222-44444444-2222-4444-66666666-88888888-22222222-44444444-|
E|-44444444-00000000-22222222-0000-2222-44444444-66666666-00000000-22222222-|

End on
E|---
B|---
G|---
D|-4~
A|-4~
E|-2~
____________________________________________________________________________
band: Fall Out Boy
song: Grenade Jumper
Standard Tuneing

Intro    1x   Guitar 1
|--------------------------------------|
|--------------------------------------|
|--7777777-----------------------------|
|--7777777-777-55555-777-999-444-55555-|
|--5555555-777-55555-777-999-444-55555-|
|----------555-33333-555-777-222-33333-|

Guitar 1   2x
|-------------------------------------------|
|-------------------------------------------|
|--77777------------------------------------|
|--77777-7-55555-7-999-444-55555------------|
|--55555-7-55555-7-999-444-55555------------|
|--------5-33333-5-777-222-33333------------|

Guitar 2  2x
|-----------------------------------------------|
|-----------------------------------------------|
|--9999-11111111-9999-7777-999-111111-9999-7777-|
|--xxxx--x-x-x-x-xxxx-xxxx-xxx--x-x-x-xxxx-xxxx-|
|--7777--9-9-9-9-7777-5555-777--9-9-9-7777-5555-|
|-----------------------------------------------|

Guitar 1                   Guitar 2

|---|-----------|        |-----|-----|-----|
|---|-----------|        |-----|-----|-----|
|---|-----------|        |--7--|-11--|--7--|
|-5-|--5--------|        |--x--|--x--|--x--|
|-5-|--5--------|        |--5--|--9--|--5--|
|-3-|--3--------|        |-----|-----|-----|
     PM over and over      25x   10x   25x

Both Guitars   1x

|-----------------------------------------|
|-----------------------------------------|
|-----------------------------------------|
|-22222-4-55555-7-999-444-55555-22222-4-5-|
|-22222-4-55555-7-999-444-55555-22222-4-5-|
|-00000-2-33333-5-777-222-33333-00000-2-3-|

Both Guitars    "HEY CHRIS"

|-----------------------------------------------------|
|-----------------------------------------------------|
|-7777-111111-999-6666-111111-999-777-111111-999-6666-|
|-xxxx--x-x-x-xxx-xxxx--x-x-x-xxx-xxx--x-x-x-xxx-xxxx-|
|-5555--9-9-9-777-4444--9-9-9-777-555--9-9-9-777-4444-|
|-----------------------------------------------------|

Guitar 1

|---------------------------------------------|
|---------------------------------------------|
|---------------------------------------------|
|-222-2-555-5-222-2-555-5-222-2-555-5-222-2-5-|
|-222-2-555-5-222-2-555-5-222-2-555-5-222-2-5-|
|-000-0-333-3-000-0-333-3-000-0-333-3-000-0-3-|
  PM~   PM~   PM~   PM~   PM~   PM~   PM~

Guitar 2

|---------------------------------------------------|
|---------------------------------------------------|
|-7777-11111111-7777-11111111-7777-11111111-7777-11-|
|-xxxx--x-x-x-x-xxxx--x-x-x-x-xxxx--x-x-x-x-xxxx--x-|
|-5555--9-9-9-9-5555--9-9-9-9-5555--9-9-9-9-5555--9-|
|---------------------------------------------------|

Guitar 1  2x "theyll say its not worth it"

|--------------------------------------------------------|
|--------------------------------------------------------|
|--------------------------------------------------------|
|-4444444-2222222-4444444-5555555-4444444-2222222-555----|
|-4444444-2222222-4444444-5555555-4444444-2222222-555----|
|-2222222-0000000-2222222-3333333-2222222-0000000-333----|
  ~~~~~~~~~~~~~~~~~~~~~~~PM~~~~~~~~~~~~~~~~~~~~~~

Guitar 2  (second time)

|-----|-----|-----|
|-----|-----|-----|
|--7--|-11--|--7--|
|--x--|--x--|--x--|
|--5--|--9--|--5--|
|-----|-----|-----|
  25x   10x   15x

Both Guitars   1x

|-----------------------------------------|
|-----------------------------------------|
|-----------------------------------------|
|-22222-4-55555-7-999-444-55555-22222-4-5-|
|-22222-4-55555-7-999-444-55555-22222-4-5-|
|-00000-2-33333-5-777-222-33333-00000-2-3-|

Both Guitars  2x   "HEY CHRIS"

|-----------------------------------------------------|
|-----------------------------------------------------|
|-7777-111111-999-6666-111111-999-777-111111-999-6666-|
|-xxxx--x-x-x-xxx-xxxx--x-x-x-xxx-xxx--x-x-x-xxx-xxxx-|
|-5555--9-9-9-777-4444--9-9-9-777-555--9-9-9-777-4444-|
|-----------------------------------------------------|

Guitar 1   7x      Guitar 2   7x

|-------------|    |---------------|
|-------------|    |---------------|
|-------------|    |-7777-11111111-|
|-222-2-555-5-|    |-xxxx--x-x-x-x-|
|-222-2-555-5-|    |-5555--9-9-9-9-|
|-000-0-333-3-|    |---------------|
  PM~   PM~

Guitar 2

|------------------------|
|------------------------|
|-11---11---11---11---11-|
|--x----x----x----x----x-|
|--9----9----9----9----9-|
|------------------------|

Guitar 1

|-----------------|
|-----------------|
|-----------------|
|-2---------5-----|
|-2-hold----5-----|
|-0---------3-----|

Guitar 1                           Then Guitar 2 goes

|-------------------------------|---------------------|
|-------------------------------|---------------------|
|-------------------------------|---7777777-----------|
|-7--777777777777777--7---------|---xxxxxxx-----------|
|-7--777777777777777--7---------|---5555555-----------|
|-5--555555555555555--5---------|---------------------|
     ~~~~~~~PM~~~~~~

Both Guitars  3x   "HEY CHRIS"

|-----------------------------------------------------|
|-----------------------------------------------------|
|-7777-111111-999-6666-111111-999-777-111111-999-6666-|
|-xxxx--x-x-x-xxx-xxxx--x-x-x-xxx-xxx--x-x-x-xxx-xxxx-|
|-5555--9-9-9-777-4444--9-9-9-777-555--9-9-9-777-4444-|
|-----------------------------------------------------|

End

|-----|
|-----|
|-----|
|--7--|
|--7--|
|--5--|
____________________________________________________________________________
band: Fall Out Boy
song: Calm Before The Storm

* = palm mute
> = continue to strum(if star under it, then palm mute the strum)
h = hammer on
~ = let ring


Intro  x4
e-----------------------------------------------------------------------|
b-----------------------------------------------------------------------|
g-----------------------------------------------------------------------|
d-------------------------------------------7------7-------7--------7---|
a--4-4--4h5---4-4--4h5------------------55-----44-----22------22--------|
e---------------------------55--99--77----------------------------------|
   * *        * *           **  **   **

Verse  x2  (palm mute)
e------------------------------------------------------------------|
b------------------------------------------------------------------|
g--7~ ---------------------------------------4>--------------------|
d--7~ ----7>-----2>-----4>-----2>-----7>-----4>----4>----2>--------|
a--5~ ----7>-----2>-----4>-----2>-----7>-----2>----4>----2>--------|
e---------5>-----0>-----2>-----0>-----5>-----------2>----0>--------|
           *      *      *      *      *      *     *     *

Pre-Chorus  x4
e--------------------|
b--------------------|
g--7>----------------|
d--7>----4>----2>----|
a--5>----4>----2>----|
e--------2>----0>----|

Chorus  x2
e--------------------------------------------|
b--------------------------------------------|
g--------------------------------------------|
d--77--77----22--22----44--44----7>----2>----|
a--77--77----22--22----44--44----7>----2>----|
e--55--55----00--00----22--22----5>----0>----|


Intro


Verse


Pre-Chorus


Chorus  (guitar 1 does regular chorus)
Guitar 2 Chorus(this time only)
e---------------------|
b---------------------|
g--x-2-2---x-4-4------|
d---------------------|
a---------------------|
e---------------------|


Bridge (guitar 1) repeat a lot
e---------------------------------|
b---------------------------------|
g---------------------------------|
d---------------------------------|
a---44444-4h5---44444 4h5---------|
e---------------------------------|
    *****       *****

Bridge(guitar 2) listen on this part, its a weird rhythm, letting on and off
e----------------------|
b----------------------|
g--7>------------------|
d--7>-----4>-----2>----|
a--5>-----4>-----2>----|
e---------2>-----0>----|

Bridge2(cont.) (guitar 2)  x5
e--------------------------------------|
b--------------------------------------|
g---7>----6>----7>-----9>--------------|
d---x>----x>----x>-----x>-------7~ ----|
a---5>----4>----5>-----7>-------7~ ----|
e-------------------------------5~ ----|

Bridge(cont.)(same as pre-chorus) Guitar 1 x4
e----------------------------|
b----------------------------|
g--7>------------------------|
d--7>----4>----2>------7~ ---|
a--5>----4>----2>------7~ ---|
e--------2>----0>------5~ ---|

Pause with Only Singing


Outro(both guitars)
e----------------------------------------------------------------------------|
b----------------------------------------------------------------------------|
g----------------------------------------------------------------------------|
d---4>---7>----2>----7>----2>----4>----7>----2>----4>-----7~ ----2~ ----7~ --|
a---4>---7>----2>----7>----2>----4>----7>----2>----4>-----7~ ----2~ ----7~ --|
e---2>---5>----0>----5>----0>----2>----5>----0>----2>-----5~ ----0~ ----5~ --|
____________________________________________________________________________
band: Fall Out Boy
song: Reinventing The Wheel To Run Myself Over
Tuning:Standard

h: hammer on
p: pull off
*:palm mute

Intro:
e|------------------------------------------------------------|
B|------------------------------------------------------------|
G|-44-422-24-------888888-999999-131313131313-161616161616----|
D|-44-422-24-------xxxxxx-xxxxxx--x-x-x-x-x-x--x-x-x-x-x-x----|
A|-22-200-02-------666666-777777-111111111111-141414141414----|
E|------------------------------------------------------------|

Verse:
e|------------------------------------------------------------|
B|------------------------------------------------------------|
G|-44444444-66666666------------------------------------------|x4
D|-44444444-66666666-2222222222222222-------------------------|
A|-22222222-44444444-2222222222222222-------------------------|
E|-------------------0000000000000000-------------------------|

Pre Chorus:
e|------------------------------------------------------------|
B|------------------------------------------------------------|
G|-4-6--------------------------------------------------------|
D|-4-6-44444444-22222222-44444444-22222222-44444444-2-2-2-2---|
A|-2-4-44444444-22222222-44444444-22222222-44444444-2-2-2-2---|
E|-----22222222-00000000-22222222-00000000-22222222-0-0-0-0---|
                          *******  *******
Chorus: Guitar 1
e|------------------------------------------------------------|
B|----4h5p4----4h5p4----4h5p4----4h5p4------------------------|
G|-4-4-----4-44-----4-44-----4-44-----4-----------------------|x4
D|------------------------------------------------------------|
A|------------------------------------------------------------|
E|------------------------------------------------------------|

Chorus: Guitar 2
e|------------------------------------------------------------|
B|------------------------------------------------------------|
G|-4-xxxx-6-xxxx----------------------------------------------|x4
D|-4-xxxx-6-xxxx-2-xxxx--66-44--------------------------------|
A|-2-xxxx-4-xxxx-2-xxxx--66-44--------------------------------|
E|---------------0-xxxx--44-22--------------------------------|

Bridge:
e|------------------------------------------------------------|
B|------------------------------------------------------------|
G|-424-xxxx-6-xxxx--------------------------------------------|
D|-424-xxxx-6-xxxx-2-xxxx-66-44-------------------------------|
A|-202-xxxx-4-xxxx-2-xxxx-66-44-------------------------------|
E|-----------------0-xxxx-44-22-------------------------------|

Bridge Cont.
e|------------------------------------------------------------|
B|------------------------------------------------------------|
G|-4-xxxx-6-xxxx----------------------------------------------|
D|-4-xxxx-6-xxxx-22222-66-44----------------------------------|
A|-2-xxxx-4-xxxx-22222-66-44----------------------------------|
E|---------------00000-44-22----------------------------------|

3rd Chorus:
e|------------------------------------------------------------|
B|------------------------------------------------------------|
G|-44444444-66666666------------------------------------------|x4
D|-44444444-66666666-22222222-66-44---------------------------|
A|-22222222-44444444-22222222-66-44---------------------------|
E|-------------------00000000-44-22---------------------------|

This comes in the end
e|------------------------------------------------------------|
B|----4h5p4----4h5p4----4h5p4----4h5p4------------------------|
G|-4-4-----4-44-----4-44-----4-44-----4-----------------------|x2
D|------------------------------------------------------------|
A|------------------------------------------------------------|
E|------------------------------------------------------------|

End with:
e|------------------------------------------------------------|
B|------------------------------------------------------------|
G|-------4----------------------------------------------------|
D|-2--4--4--2-------------------------------------------------|
A|-2--4--2--2-------------------------------------------------|
E|-0--2-----0-------------------------------------------------|

Order

intro
verse
pre chorus
chorus
verse
prechorus
chorus
bridge
3rd chorus
end part
____________________________________________________________________________
band: fall out boy
song: The Patron Saint of Liars and Fakes
Tuning: drop D

intro
e|--------------------------------------------------------------------|
B|--------------------------------------------------------------------|
G|---------------------------------------------------5-------------5--|
D|-------5-------3-----3-----10-----8-----7/----32/3-------3-2/3-----|
A|-------5-------5-----5-----8------8-----8/---3----------3-----------|
D|--0-0-----0-0-----0-----8------8------------3---------3-------------|
    . .     . .     .     .      .            ...       . . .
e|--------------------------------------------------------------------|
B|-----------6^^^^^^--------------------------------------------------|
G|------------8^^^^^^-------------------------------------------------|
D|--4444--------------------------------------------------------------|
A|--4444--------------------------------------------------------------|
D|--4444--------------------------------------------------------------|

e|--------------------------------------------------------------------|
B|--------------------------------------------------------------------|
G|-------------------------------------10-----------------------------|
D|----7----0----10----12---------------x------------------------------|
A|----7----0----7-----8-----3----3-----8------------------------------|
D|----7----0----7-----8-----2----3------------------------------------|

e|--------------------------------------------------------------------|
B|--------------------------------------------------------------------|
G|----10----14---12\14/10---------------------------------------------|
D|----x-----x----x--x--x----------------------------------------------|
A|----8-----12---10\12/8----------------------------------------------|
D|--------------------------------------------------------------------|

e|--------5----------6-----5------------------------------------------|
B|------------6----------------6--------------------------------------|
G|----------------5---------------------------------------------------|
D|--------------------------------------------------------------------|
A|--------------------------------------------------------------------|
D|--------------------------------------------------------------------|


| /  slide up
| \  slide down
| h  hammer-on
| p  pull-off
| ~  vibrato
| +  harmonic
| x  Mute note
Related for Take This To Your Grave tab