Song name
# A B C D E F G H I J K L M N O P Q R S T U V W X Y Z

Fall Out Boy - Carpal Tunnel Of Love tab

Fall Out Boy
Carpal Tunnel Of Love
Infinity on High


Guitar 1
tunning:drop d


Intro/verse
|-----------------------------------------------------------------------|
|-----------------------------------------------------------------------|
|-xx-77-xx-77-xx-3-xx-7--xx-77-xx-33-2---77-xx-77-xx-3--xx-7-xx-77-33-2-|
|-xx-xx-xx-xx-xx-3-xx-x--xx-xx-xx-33-2---xx-xx-xx-xx-3--xx-x-xx-xx-33-2-|
|-xx-55-xx-55-xx-1-xx-5-xxx-55-xx-11-0-x-55-xx-55-xx-1-xxx-5-xx-55-11-0-|
|-----------------------------------------------------------------------|
play 3 times


then play
|------------------|
|------------------|
|-xx-77-xx-77-xx-7-|
|-xx-xx-xx-xx-xx-x-|
|-xx-55-xx-55-xx-5-|
|------------------|
a lot of times

Chorus
|--------------------------------------------------------------------------|
|-66666666-55555555-6666-6666-555-55-6-66666666-55555555-6666-6666-88888777|
|-xxxxxxxx-xxxxxxxx-xxxx-xxxx-xxx-xx-x-xxxxxxxx-xxxxxxxx-xxxx-xxxx-xxxxxxxx|
|-33333333-22222222-3333-3333-222-22-3-33333333-22222222-3333-3333-55555555|
|--------------------------------------------------------------------------|
|--------------------------------------------------------------------------|
play twice

play verse again


Chorus 2
|--------------------------------------------------------------------------|
|-66666666-55555555-6666-6666-555-55-6-66666666-55555555-6666-6666-88888777|
|-xxxxxxxx-xxxxxxxx-xxxx-xxxx-xxx-xx-x-xxxxxxxx-xxxxxxxx-xxxx-xxxx-xxxxxxxx|
|-33333333-22222222-3333-3333-222-22-3-33333333-22222222-3333-3333-55555555|
|--------------------------------------------------------------------------|
|--------------------------------------------------------------------------|

|--------------------------------------------------------------------------|
|-66666666-55555555-6666-6666-555-55-6-66666666-55555555-6666-6666-88888777|
|-xxxxxxxx-xxxxxxxx-xxxx-xxxx-xxx-xx-x-xxxxxxxx-xxxxxxxx-xxxx-xxxx-xxxxxxxx|
|-33333333-22222222-3333-3333-222-22-3-33333333-22222222-3333-3333-55555555|
|--------------------------------------------------------------------------|
|--------------------------------------------------------------------------|

|----|
|----|
|-7~-|
|-x--|
|-5~-|
|----|


bridge
|----------------------|
|----------------------|
|-77-x77-x77-x77-x77-5-|
|-xx-xxx-xxx-xxx-xx7-5-|
|-55-x55-x55-x55-x55-3-|
|----------------------|
play twice


|--------------------------------------------|
|--------------5--55--5555-66666--8--88-8888-|
|-x-77-x-77-x-7x--xx--4444-55x55--x-xx7-x777-|
|-x-xx-x-xx-x-x2-x22-x2222-33333--5-x55-5555-|
|-x-55-x-55-x-5--x---x--------------x--------|
|--------------------------------------------|
play twice

play chorus 2


guitar 2
tuning: Drop D

verse
|----------------------------------------------------|
|----------------------------------------------------|
|-----2-33--2-----2-33--3-55--77--2-33--2-----33--55-|
|-00--2-33--2-55--2-33--3-55--77--2-33--2-55--33--55-|
|-00--0-11--0-55--0-11--1-33--55--0-11--0-55--11--33-|
|-00----------55--------------------------55---------|

|---------------------------------------|
|---------------------------------------|
|-33333333-2222222-------------------22-|
|-33333333-2222222-00-0--00-0--033-3-22-|
|-11111111-0000000-00-0--00-0--033-3-00-|
|------------------00-0--00-0--033-3----|

|------------------------------------------|
|------------------------------------------|
|-33333333-222222222-----------------------|
|-33333333-222222222-55-5--55-5--3333-2222-|
|-11111111-000000000-55-5--55-5--3333-3333-|
|--------------------55-5--55-5--3333-2222-|


chorus
|--------------------------------------|
|--------------------------------------|
|-------------------33333333------2233-|
|-00000000-33333333-33333333-5555-2233-|
|-00000000-33333333-11111111-5555-0011-|
|-00000000-33333333----------5555------|

|----------------------------------------------|
|----------66666666----------88888888-66666666-|
|-77777777-xxxxxxxx-77777777-xxxxxxxx-xxxxxxxx-|
|-xxxxxxxx-33333333-xxxxxxxx-55555555-33333333-|
|-55555555----------55555555-------------------|
|----------------------------------------------|


play verse again, but on last part, only play up to the G chord


Chorus 2
|--------------------------------------|
|--------------------------------------|
|-------------------33333333------2233-|
|-00000000-33333333-33333333-5555-2233-|
|-00000000-33333333-11111111-5555-0011-|
|-00000000-33333333----------5555------|

|----------------------------------------------|
|----------66666666----------88888888-66666666-|
|-77777777-xxxxxxxx-77777777-xxxxxxxx-xxxxxxxx-|
|-xxxxxxxx-33333333-xxxxxxxx-55555555-33333333-|
|-55555555----------55555555-------------------|
|----------------------------------------------|

|--------------------------------------|
|--------------------------------------|
|-------------------33333333------2233-|
|-00000000-33333333-33333333-5555-2233-|
|-00000000-33333333-11111111-5555-0011-|
|-00000000-33333333----------5555------|

|----------------------------------------------|
|----------66666666----------88888888-66666666-|
|-77777777-xxxxxxxx-77777777-xxxxxxxx-xxxxxxxx-|
|-xxxxxxxx-33333333-xxxxxxxx-55555555-33333333-|
|-55555555----------55555555-------------------|
|----------------------------------------------|

|----|
|----|
|----|
|-0~-|
|-0~-|
|-0~-|


Bridge
|------------------|
|------------------|
|-77-77-77-77-77-5-|
|-77-77-77-77-77-5-|
|-55-55-55-55-55-3-|
|------------------|
play twice


|----------------------------------------------------------|
|----------------------------------------------------------|
|---------------9-x99-x9999-1010101010--12-x1212-x12121212-|
|-1212-x1212-x129-x99-x9999-1010x-1010--12-x1212-x12121212-|
|-1212-x1212-x127-x77-x7777-8-8-8-8-8---10-x1010-x10101010-|
|-1212-x1212-x12-------------------------------------------|
play twice

play Chorus 2
Tap to rate this tab
# A B C D E F G H I J K L M N O P Q R S T U V W X Y Z