Song name
# A B C D E F G H I J K L M N O P Q R S T U V W X Y Z

Fall Out Boy - Dont You Know Who I Think I Am tab

           
                I'm pretty sure this tab is 99% right
                     Please rate and comment!
                           Thanx :P
Prelude Guitar One 2x
E--------------------|
B--------------------|
G--------------------|
D--------------------|
A-------4--666--4----|
E--666-4-------6-----|
PM ... .   ... .
              |-----------Second time there do this |---------|
Guitar Two 2x                                       |---------|
E--------------------|                              |---------|
B--------------------|                              |-xx-xx---|
G----6---66--6---66--|                              |-xx-xx---|
D----6---66--6---66--|                              |-xx-xx---|
A--------------------|
E--------------------|


Intro Guitar One 4x
E----------------------|
B----------------------|
G-------6---888--6-----|
D--888-66---888-86-----|
A--888-64---666-84-----|
E--666-4--------6------|

Guitar Two 4x
E------------------------------|
B------------------------------|
G-1010101010/11\10101010-6-----|
D--x-x-x-x-x-x---x-x-x-x-x-----|
A--8-8-8-8-8/-9\-8-8-8-8-4-----|
E------------------------------|

Verse Guitar One 4x
E--------------------|
B--------------------|
G--------------------|
D--------------------|
A-------4--666--4----|
E--666-4-------6-----|

Guitar Two 4x
E--------------------|
B--------------------|
G----6---66--6---66--|
D----6---66--6---66--|
A--------------------|
E--------------------|

Pre Chorus Guitar One 2x
E---------------------------------------------|
B---------------------------------------------|
G--------------------66666666---6---6---------|
D--88888888-66666666-66666666-4-x-4-x-4444----|
A--88888888-66666666-44444444-4-4-4-4-4444----|
E--66666666-44444444----------2---2---2222----|
PM ........ ........ ........ .   .   ....

Guitar Two 1x 
E--------------------------------------------------------------------------|
B--------------------------------------------------------------------------|
G----6-6h8----6-6h8----6-6h8----6-6h8----6-6h8----6-6-6----6-6h8-----------|
D-----------------------------------------------------x-----------4xx-x44--|
A-----------------------------------------------------4-----------4xx-x44--|
E-----------------------------------------------------------------2xx-x22--|

Chorus Guitar One 2x
E-----------------------------------------|
B-----------------------------------------|
G-----------------------------------------|
D--333-444-666-8888-333-444-66666666------|
A--333-444-666-8888-333-444-66666666------|
E--111-222-444-6666-111-222-44444444------|

Chorus Guitar Two 2x
E-------------------------------------------------|
B--999-111111-131313-14141414-666-777-99999999----|
G--xxx--x-x-x--x-x-x--x-x-x-x-xxx-xxx-xxxxxxxx----|
D--666--8-8-8-101010-11111111-333-444-66666666----|
A-------------------------------------------------|
E-------------------------------------------------|

Repeat Prelude 2x

Guitar One repeat verse 2x then
E--------------------|
B--------------------|
G--------------------|
D--8888-101010/11----|
A--8888--8-8-8/-9----|
E--6666--------------|

Guitar Two repeat verse 4x

Guitar Three (dubbed)
E--4-44-6p4----|
B--------------|
G--------------|
D--------------|     4x
A--------------|
E--------------|

Guitar One Repeat Pre Chorus 2x

Guitar plays this 1x instead
E------------------------------------------------------------------|
B------------------------------------------------------------------|
G--66666666/88888888\666666/8\333333-66666666/888/1010-66666666----|
D--xxxxxxxx-xxxxxxxx-xxxxxx-x-xxxxxx-xxxxxxxx-xxx--x-x-xxxxxxxx----|
A--44444444/66666666\444444/6\111111-44444444/666/-8-8-44444444----|
E------------------------------------------------------------------|

Repeat Chorus 4x

On the third and fourth time guitar two plays (those are elevens not ones) 
E--8h9p8-11-9----|                         |-13~-12~---|
B----------------|                         |-----------|
G----------------| 8x On the 4th time play |-----------|
D----------------|                         |-----------|
A----------------|                         |-----------|
E----------------|                         |-----------|

Interlude Guitar One 1x
E------------------------------------------------------------------|
B------------------------------------------------------------------|
G------------10--10--10-10-10-10-10-10-10-10-10--------------------|
D--8~---------x---x---x--x--x--x--x--x--x--x--x--------------------|
A--8~---------8---8---8--8--8--8--8--8--8--8--8--------------------|
E--6~----------------------------------------------------pickslide-|

Guitar Two
E--------------------------------------------------------------------------|
B--------------------------------------------------------------------------|
G--3~----------15--15--------------------------151515\131313\121212\111111-|
D--3~-----------x---x---------------------------x-x-x--x-x-x--x-x-x--x-x-x-|
A--1~----------13--13--------------------------131313\111111\101010\-9-9-9-|
E--------------------------------------------------------------------------|

Bridge repeat Intro 4x

Repeat Chorus with Guitar three but not guitar two 4x

On forth time Guitar Two Does a solo type riff 1x
E--------------------------------------------------------------|
B-----------------------------8b9-----------------8b9----------|
G-------------6-8h10-8h10-8p6---8h10-8h10-8-8\6----------------|
D--------3h4h6-6--------------------------------6--------------|
A--4\-4h6------------------------------------------------------|
E--------------------------------------------------------------|

then repeat prelude 2x

                         The End
Tap to rate this tab
 
# A B C D E F G H I J K L M N O P Q R S T U V W X Y Z