Song name
# A B C D E F G H I J K L M N O P Q R S T U V W X Y Z

Fall Out Boy - Ginasfs tab

---------------------------------------------------------------------
                     Fall Out Boy - G.I.N.A.S.F.S.
---------------------------------------------------------------------

Tabbed by ssk9716757

Awesome song by Fall Out Boy so I thought I'd tab it. I did this by ear,
so it probably won't be 100% since the guitar isn't really clear in some
parts, but I tried to get it as close as possible. Enjoy.


Legend
------

h - hammer-on
p - pull-off
/ - slide up
\ - slide down
. - palm mute
~ - let ring
v - vibrato
^ - bend
(#) - natural harmonic
[#] - pinch harmonic


Tuning: Drop D (low to high: DADGBe)


Intro:

 |Gtr 1
e|-----------------|-------------------------|------------------------|
B|-----------------|-o-----------------------|----------------------o-|
G|-----------------|----1111-911-7-1111-911--|-1111-911-14-1111-911---|
D|-----------------|----x-x--xx--x-x-x--xx---|-x-x--xx--x--x-x--xx----|
A|-----------------|-o--9-9--79--5-9-9--79---|-9-9--79--12-9-9--79--o-|
D|-----------------|-------------------------|------------------------|
 |
 |Gtr 2
e|-----------------|--------------------------|--------------------------|
B|-----------------|-o------------------------|------------------------o-|
G|-----------------|--------------------------|-44--24------44--24-xx----|
D|-44-24-00-44-24--|----44--24--0---44--24-xx-|-44--24--5---44--24-xx----|
A|-44-24-00-44-24--|-o--44--24--0---44--24-xx-|-22--02--5---22--02-xx--o-|
D|-44-24-00-44-24--|----44--24--0---44--24-xx-|---------5----------------|


Verse 1:

(0:13)
 |Gtr 1
e|------------------|-----------------------------------------------|
B|------------------|-----------------------------------------------|
G|------------------|-22222222------------------44-24----44-24~-2~--|
D|------------------|-22222222-00-00-0000-00-xx-44-24-55-44-24~-2~--|
A|------------------|-00000000-00-00-0000-00-xx-22-02-55-22-02~-0~--|
D|------------------|----------00-00-0000-00-xx-------55------------|
 |
 |Gtr 2
e|------------------|-----------------------------------------------|
B|------------------|-----------------------------------------------|
G|--------4-2-------|-22222222------------------44-24----44-24~-2~--|
D|-0~~~~--4-2-5~~~--|-22222222-00-00-0000-00-xx-44-24-55-44-24~-2~--|
A|-0~~~~--2-0-5~~~--|-00000000-00-00-0000-00-xx-22-02-55-22-02~-0~--|
D|-0~~~~------5~~~--|----------00-00-0000-00-xx-------55------------|

(0:29)
 |Gtr 1
e|-------------------|-------------------|
B|-------------------|-------------------|
G|-------------------|-------------------|
D|-55-55-xx-55-55-xx-|-55555555x-5554444-|
A|-55-55-xx-55-55-xx-|-55555555x-5554444-|
D|-55-55-xx-55-55-xx-|-55555555x-5554444-|
 |
 |Gtr 2
e|-------------------|-------------------|
B|-------------------|-------------------|
G|-------------------|-------------------|
D|-55-55-xx-55-55-xx-|-55555555x-5554444-|
A|-55-55-xx-55-55-xx-|-55555555x-5554444-|
D|-55-55-xx-55-55-xx-|-55555555x-5554444-|



Pre-Chorus Part 1:

(0:35)
 |Gtr 1
e|-5-0-2-0-5-0-2-0-5-0-2-0-5-0-2-0----|-5-0-2-0-5-0-2-0-5-0-2-0-5-0-2-0-|
B|------------------------------------|---------------------------------|
G|------------------------------------|---------------------------------|
D|------------------------------------|---------------------------------|
A|------------------------------------|---------------------------------|
D|------------------------------------|---------------------------------|
 |
 |Gtr 2
e|------------------------------------|-------------------------------------------|
B|------------------------------------|-------------------------------------------|
G|------------------7777666644442222--|------------------7777x9991111111114141414-|
D|-0000000000000000-xxxxxxxxxxxxxxxx--|-0000000000000000-xxxxxxxxx-x-x-x-x-x-x-x--|
A|-0000000000000000-5555444422220000--|-0000000000000000-5555x7779-9-9-9-12121212-|
D|-0000000000000000-------------------|-0000000000000000--------------------------|


Pre-Chorus Part 2:

(0:46)
 |Gtr 1
e|-------------------------------------|-------------------|------------------|
B|-------------------------------------|-------------------|------------------|
G|-6~-66-7~-7-2vvv---7-9-11-6vvvv------|-4~-6-7-7vv--7-11--|-3h4p3h4p3h4p3h4--|
D|-------------------------------------|-------------------|-(^Until-Chorus^)-|
A|-------------------------------------|-------------------|------------------|
D|-------------------------------------|-------------------|------------------|
 |
 |Gtr 2
e|-------------------------------------|-------------------|------------------|
B|-------------------------------------|-------------------|------------------|
G|-44-44-xx-77-77-xx-------------------|-------------------|------------------|
D|-44-44-xx-77-77-xx-00-00-xx-44-44-xx-|-55-55-xx-22-22-xx-|-4444444444444444-|
A|-22-22-xx-55-55-xx-00-00-xx-44-44-xx-|-55-55-xx-22-22-xx-|-4444444444444444-|
D|-------------------00-00-xx-44-44-xx-|-55-55-xx-22-22-xx-|-4444444444444444-|


Chorus:

(0:56)
 |Gtr 1
e|-------------------------------------|-------------------|------------------|
B|-------------------------------------|-------------------|------------------|
G|-6~-66-7~-7-2vvv---7-9-11-6vvvv------|-4~-6-7-7vv--7-11--|-3h4p3h4p3h4p3h4--|
D|-------------------------------------|-------------------|------------------|
A|-------------------------------------|-------------------|------------------|
D|-------------------------------------|-------------------|------------------|
 |
 |Gtr 2
e|-------------------------------------|-------------------|------------------|
B|-------------------------------------|-------------------|------------------|
G|-44-44-xx----------22-22-xx----------|-------------------|------------------|
D|-44-44-xx-55-55-xx-22-22-xx-44-44-xx-|-55-55-xx-22-22-xx-|-4444444444444444-|
A|-22-22-xx-55-55-xx-00-00-xx-44-44-xx-|-55-55-xx-22-22-xx-|-4444444444444444-|
D|----------55-55-xx----------44-44-xx-|-55-55-xx-22-22-xx-|-4444444444444444-|


After Chorus (1:07): Repeat Intro

Verse 2 (1:18): Repeat Verse 1

Pre-Chorus(1:40): Repeat Pre-Chorus Parts 1 and 2

Chorus (2:01): Repeat Chorus


Bridge:

(2:12)
 |Gtr 1
e|-----------------|-------------------------|------------------------|
B|-----------------|-o-----------------------|----------------------o-|
G|-----------------|----1111-911-7-1111-911--|-1111-911-14-1111-911---|
D|-----------------|----x-x--xx--x-x-x--xx---|-x-x--xx--x--x-x--xx----|
A|-----------------|-o--9-9--79--5-9-9--79---|-9-9--79--12-9-9--79--o-|
D|-----------------|-------------------------|------------------------|
 |
 |Gtr 2
e|-----------------|--------------------------|--------------------------|
B|-----------------|-o------------------------|------------------------o-|
G|-------22--------|--------------------------|-44--24------44--24-xx----|
D|-00-00-22-00-00--|----44--24--0---44--24-xx-|-44--24--5---44--24-xx----|
A|-00-00-00-00-00--|-o--44--24--0---44--24-xx-|-22--02--5---22--02-xx--o-|
D|-00-00----00-00--|----44--24--0---44--24-xx-|---------5----------------|

(2:25)
 |Gtr 1
e|---5-0-2-0-5-0-2-0-5-0-2-0-5-0-2-0-|-5-0-2-0-5-0-2-0-5-0-2-0-5-0-2-0-|
B|-----------------------------------|---------------------------------|
G|-----------------------------------|---------------------------------|
D|-----------------------------------|---------------------------------|
A|-----------------------------------|---------------------------------|
D|-----------------------------------|---------------------------------|
 |                                
 |Gtr 2                           
e|-----------------------------------|---------------------------------|
B|-----------------------------------|---------------------------------|
G|---------------------------2~~~~~--|---------------------------------|
D|---0~~~~~~~~~~~~~~~-0~~~~~-2~~~~~--|-0~~~~~~~~~~~~~~-0~~-0~~-0~~-0~~-|
A|---0~~~~~~~~~~~~~~~-0~~~~~-0~~~~~--|-0~~~~~~~~~~~~~~-0~~-0~~-0~~-0~~-|
D|---0~~~~~~~~~~~~~~~-0~~~~~---------|-0~~~~~~~~~~~~~~-0~~-0~~-0~~-0~~-|

(2:36)
 |Gtr 1
e|---5-0-2-0-5-0-2-0-5-0-2-0-5-0-2-0-|-5-0-2-0-5-0-2-0-5-0-2-0-5-0-2-0-|
B|-----------------------------------|---------------------------------|
G|-----------------------------------|---------------------------------|
D|-----------------------------------|---------------------------------|
A|-----------------------------------|---------------------------------|
D|-----------------------------------|---------------------------------|
 |                                
 |Gtr 2                           
e|-----------------------------------|---------------------------------|
B|-----------------------------------|---------------------------------|
G|-----------------------------------|---------------------------------|
D|---0~~~~~~~~~~~~~~~-0~~~~~~~~~~~~~-|-0~~~~~~~~~~~~~~-0~~~~~-00000000-|
A|---0~~~~~~~~~~~~~~~-0~~~~~~~~~~~~~-|-0~~~~~~~~~~~~~~-0~~~~~-00000000-|
D|---0~~~~~~~~~~~~~~~-0~~~~~~~~~~~~~-|-0~~~~~~~~~~~~~~-0~~~~~-00000000-|
                                                              ........

(2:47): Repeat Pre-Chorus Part 2

(2:58): Repeat Chorus


Outro

(3:09)
 |Gtr 1
e|---------------------------|
B|---------------------------|
G|---------------------------|
D|-0-0-0-5-0-0-0-5-0-0-0-5-0-|
A|-0-0-0-5-0-0-0-5-0-0-0-5-0-|
D|-0-0-0-5-0-0-0-5-0-0-0-5-0-|
 |
 |Gtr 2
e|---------------------------|
B|---------------------------|
G|---------------------------|
D|-0-0-0-5-0-0-0-5-0-0-0-5-0-|
A|-0-0-0-5-0-0-0-5-0-0-0-5-0-|
D|-0-0-0-5-0-0-0-5-0-0-0-5-0-|


Whew, there ya go. Took a long time, but I'm sure it's close. Please rate/comment,
and remember: if you do hate it, gay is not a synonym for shitty ^_^
Tap to rate this tab
# A B C D E F G H I J K L M N O P Q R S T U V W X Y Z