Song name
# A B C D E F G H I J K L M N O P Q R S T U V W X Y Z

Fall Out Boy - Take Over Thebreaks Over tab

this is tabbed by marvin_robles8


gtr.1(joe trohman)-distortion
gtr.2(patrick stump)-distortion

intro & verse:
Gtr.2
e|------------------------------------------------------------|
B|------------------------------------------------------------|
G|---4-------4---4------4------------4-----4--4----4-------5--| 6x
D|------------------------------5--------------------------5--|
A|-4-------4---4----------------5---------------22----22---3--|
E|-------------------44----4-4--3--2----2--2------------------|
  baby seasons change...

Gtr 2 enters when gtr. 1 reaches 4x
e|--------------------------------|
B|--------------------------------|
G|-66666---------------444444-5---|
D|-66666-66666-5-44444-444444-5---|
A|-44444-66666-5-44444-222222-3---|
E|-------44444-3-22222------------|
  don't pretend...

Pre-chorus
gtrs. 1 & 2
e|------------------------------------------------------------|
B|------------------------------------------------------------|
G|-22222-44444---------6666-444---22222-4444---------666-44---| 
D|-22222-44444-7-66666-6666-444---22222-4444-7-66666-666-44---|
A|-00000-22222-7-66666-4444-222---00000-2222-7-66666-444-22---|
E|-------------5-44444-----------------------5-44444----------|

verse 2
Gtr. 1
e|------------------------------------------------------------|
B|------------------------------------------------------------|
G|---4-------4---4------4------------4-----4--4----4-------5--| 6x
D|------------------------------5--------------------------5--|
A|-4-------4---4----------------5---------------22----22---3--|
E|-------------------44----4-4--3--2----2--2------------------|
  we don't fight fair..

Gtr. 2 starts when Gtr. 1 reaches 2x
e|--------------------------------|
B|--------------------------------|
D|-2---2---2----6---4---1-2-------| 2x
A|--------------------------------|
E|--------------------------------|
  say your head could be a prison...

Pre-chorus
gtrs. 1 & 2
e|------------------------------------------------------------|
B|------------------------------------------------------------|
G|-22222-44444---------6666-444---22222-4444---------666-44---| 
D|-22222-44444-7-66666-6666-444---22222-4444-7-66666-666-44---|
A|-00000-22222-7-66666-4444-222---00000-2222-7-66666-444-22---|
E|-------------5-44444-----------------------5-44444----------|

Chorus
Gtrs. 1 & 2
e|------------------------------------------------------------|
B|------------------------------------------------------------|
G|--------------4--4-4-xxxx------------6-xxxx--4xxxx----------| 2x
D|--2--2-2-xxxx-4--4-4-xxxx--6-7-xxxx--6-xxxx--4xxxx----------|
A|--2--2-2-xxxx-2--2-2-xxxx--6-7-xxxx--4-xxxx--2xxxx----------|
E|--0--0-0-xxxx--------------4-5-xxxx-------------------------|
  we do it in the dark...

Gtr. 1
e|------------------------------------------------------------|
B|------------------------------------------------------------|
G|---4-------4---4------4------------4-----4--4----4-------5--| 2x
D|------------------------------5--------------------------5--|
A|-4-------4---4----------------5---------------22----22---3--|
E|-------------------44----4-4--3--2----2--2------------------|
  we don't fight fair..

Ablib:
Gtr. 1
e|-----------------------------------------------------|
B|-----------------------------------------------------|
G|---------------------------4-------------------------|
D|----------4---7-6-6--4--6-----7-6--------------------|
A|--4--6-7--------------------------6--7--4------------|
E|------------------------------------------7----------|

e|---------------------------------------------------------|
B|---------------------------------------------------------|
G|---------------------------4--------------------4 \-6--4-|
D|----------4---7-6-6--4--6-----7-6----------4--6----------|
A|--4--6-7--------------------------6--7--5----------------|
E|---------------------------------------------------------|

e|------------------------------------------------------------------------|
B|------------------------------------------------------------------------|
G|------16-----16------16-------------------16-----16------16-------------|
D|--14------14-----13------13---16\17-------------------------------------|
A|-------------------------------------16------16------14------14---18\19-|
E|------------------------------------------------------------------------|

e|------------------------------------------------------------------------|
B|------------------------------------------------------------------------|
G|------16-----16------16-------------------------------------------------|
D|--14------14-----13------13---16\17----11--13--14--16-------------------|
A|------------------------------------------------------------------------|
E|------------------------------------------------------------------------|

Chorus
Gtr.2 (clean)
e|------------------------------------------------------------|
B|------------------------------------------------------------|
G|--------------4--4-4-xxxx------------6-xxxx--4xxxx----------| 2x
D|--2--2-2-xxxx-4--4-4-xxxx--6-7-xxxx--6-xxxx--4xxxx----------|
A|--2--2-2-xxxx-2--2-2-xxxx--6-7-xxxx--4-xxxx--2xxxx----------|
E|--0--0-0-xxxx--------------4-5-xxxx-------------------------|
  we do it in the dark...

gtr.1 enters when gt2 reaches 2x

e|-----------4-5-4----------------------------12-12----------------------|
B|----4-5-7-------7-5-4-----------8-9--12-12-------12-12-9-9----10-9-7---|
G|6--------------------6-4-----------------------------------------------|
D|-----------------------------------------------------------------------|
A|-----------------------------------------------------------------------|
E|-----------------------------------------------------------------------|

e|------------------------------------------------------------|
B|------------------------------------------------------------|
G|--------------4--4-4-xxxx------------6-xxxx--4xxxx----------| 2x
D|--2--2-2-xxxx-4--4-4-xxxx--6-7-xxxx--6-xxxx--4xxxx----------|
A|--2--2-2-xxxx-2--2-2-xxxx--6-7-xxxx--4-xxxx--2xxxx----------|
E|--0--0-0-xxxx--------------4-5-xxxx-------------------------|
  we do it in the dark...




Tap to rate this tab
 
# A B C D E F G H I J K L M N O P Q R S T U V W X Y Z