Song name
# A B C D E F G H I J K L M N O P Q R S T U V W X Y Z

Fall - Jerusalem tab

The fall

BASS INTRO arranged for guitar
E|------------------------------|
B|------------------------------|
G|------------------------------|
D|---------------5--------------|
A|------------5-----7--5-----5--|
E|--0--3--7---------------7-----|

E|----------------------------|
B|----------------------------|
G|----------------------------|
D|----------------------------|
A|--7--5----------------------|
E|---------7--5--5--3--3---0--|
Play that twice then into the verse riff.

Verse:
E|--------------------------------|
B|--------------------------------|
G|--------------------------------|
D|--------------------------------|
A|----------2---------------------|
E|--0---3-------5----0---3--3--0--|

BRIDGE "I was walking down the street.."
E|------------------0---|
B|------------------0---|
G|------------------1---|
D|------------------2---|
A|------------------2---|
E|----0---3--3--0---0---|
Tap to rate this tab
# A B C D E F G H I J K L M N O P Q R S T U V W X Y Z