Song name
# A B C D E F G H I J K L M N O P Q R S T U V W X Y Z

Fall - Garden tab

main verse riff- repeat ad infinitum
e----------------|
b--3----3-3------|
g----0-0----0--0-|
d----------------|
a----------------|
e----------------|

"chorus" riff
e--------2-----------------2-0-0-0-0-0--------|
b---1-1----1-1-1-1-1--1-1---------------------|
g--0---0-------------0---0------------  play--| x2
d---------------------------------------------|
a---------------------------------------------|
e---------------------------------------------|

that's all there really is.
Tap to rate this tab
# A B C D E F G H I J K L M N O P Q R S T U V W X Y Z