Fall - Repetition tab

Repetition
by The Fall

Here's the main riff, now you can do it this way:
|-13-12-11--------------|
|----------13--13-13-13-|
|-----------------------|
|-----------------------|
|-----------------------|
|-----------------------|

Or this way:
|-14-13-12--------------|
|----------14--14-14-14-|
|-----------------------|
|-----------------------|
|-----------------------|
|-----------------------|

And in between those parts there's some parts where you play a random note are 
I don't know those but I do know that the first time you do that you bend the note.

See Ya~~~~~~~~~~~~~~~~~~~~~~~~~~~~~~~~~~~~~~~~~~~~~~~~~!
Tap to rate this tab
 
# A B C D E F G H I J K L M N O P Q R S T U V W X Y Z