Song name
# A B C D E F G H I J K L M N O P Q R S T U V W X Y Z

Fall - 2 Librans tab

2 LIBRANS

THE FALL
DROP D

VERSE
lead guitar 
E|-----------------------------------|
B|-----------------------------------|
G|-7-7-7-7-7-7-7-7-7-7-7-7-7-7-7-7---|
D|-----------------------------------|
A|-----------------------------------|
D|-----------------------------------|

E|----------------------------------|
B|----------------------------------|
G|-6-6-6-6-6-6-6-6-6-6-6-6-6-6-6-6--|
D|----------------------------------|
A|----------------------------------|
D|----------------------------------|

E|----------------------------------|
B|----------------------------------|
G|----------------------------------|
D|----------------------------------|
A|-5-5-5-5-5-5-5-5-5-5-5-5-5-5-5-5--|
D|----------------------------------|

E|--------------------------------------|
B|--------------------------------------|
G|--------------------------------------|
D|--------------------------------------|
A|-4-4-4-4-4-4-4-4--s--7-7-7-7-7-7-7-7--|
D|--------------------------------------|

CHORUS
B   Bb   A   E5 D5
PLAY CHORDS LIKE THIS
E|---------------------|
B|--4---3--2-----------|
G|--4---3--2-----------|
D|--4---3--2--2--0-----|
A|--2---1--0--2--0-----|
D|------------2--0-----|

VERSE FUZZY BASS RIFF
G|--------------------|
D|--------------------|
A|--2-2-2-------2-s-5-|
D|---------3-3--------|
Tap to rate this tab
# A B C D E F G H I J K L M N O P Q R S T U V W X Y Z