Song name
# A B C D E F G H I J K L M N O P Q R S T U V W X Y Z

Fall - Folding Money tab

FOLDING MONEY
THE FALL

E|-0---1--1-1---|
B|-0---1--1-1---|
G|-1-s-2--2-2---|
D|-2---3--3-3---|
A|-2---3--3-3---|
E|-0---1--1-1---|
Then
E|-5---6--6-6--|
B|-5---6--6-6--|
G|-6-s-7--7-7--|
D|-7-s-8--8-8--|
A|-7-s-8--8-8--|
E|-5---6--6-6--|

THE DO THE SAME FOR THE Bb FROM A ON 5TH FRET 
SOLO
E|--3-----------0----3---------3--|
B|-----5--3--6--3--------5--3-----|
G|--------------------------------|
D|--------------------------------|
A|--------------------------------|
E|--------------------------------|


Any comments or corrections to graemebaty@hotmail.com
Tap to rate this tab
# A B C D E F G H I J K L M N O P Q R S T U V W X Y Z