Song name
# A B C D E F G H I J K L M N O P Q R S T U V W X Y Z

Fall - New Big Prinz tab

Help us improve GuitareTab! Take a short survey!
NEW BIG PRINZ
THE FALL

Main Riff
E|--------------------------------------|  
B|--------------------------------------|  
G|-8-8-8-8---7-7-7-7----5-5-5-5---------|  
D|---------s----------s-----------------|  
A|-6-6-6-6---5-5-5-5----3-3-3-3---0--1--|  
E|--------------------------------------|  
Then
E|------------------------------------------|
B|------------------------------------------|
G|-8-8-8-8---7-7-7-7----10-10-10-10---------|
D|---------s---------s----------------------|
A|-6-6-6-6---5-5-5-5----8--8--8--8----0--1--|
E|------------------------------------------|
Bass
G|---------------------------|
D|---------------------------|
A|--3-3-3-3--3-3-3-3---0--1--|
E|---------------------------|
Related for New Big Prinz tab