Song name
# A B C D E F G H I J K L M N O P Q R S T U V W X Y Z

Fallen Shadows - Fallen Shadow tab

**ok i(richard) made this my self lyrics will be at the bottom hope u like it



Intro (acoustic)

e|-------------------------|
B|-------------------------|
G|-----0~---0~0~--0~---0~0~|
D|----4----4-4---4----4-4--|  x2
A|---2----2-2---2----2-2---|
E|--0----0-0---3----3-3----|


rythem (electric/acoustic)

       |   pm    |    |pm |        |    pm    |
e|--x--x-x-x-x-x-x-|-x--x-x---|--x--x-x-x-x-x-x-|-x--x-x---|
B|--x--x-x-x-x-x-x-|-x--x-x---|--x--x-x-x-x-x-x-|-x--x-x---|
G|--4~-4-4-4-4-4-4-|-4--4-4-x2|--4--4-4-4-4-4-4-|-4--4-4-x2|  
D|--4~-4-4-4-4-4-4-|-4--4-4---|--4--4-4-4-4-4-4-|-4--4-4---|   x2
A|--2~-2-2-2-2-2-2-|-2--2-2---|--2--2-2-2-2-2-2-|-2--2-2---|
E|--0~-0-0-0-0-0-0-|-0--0-0---|--3--3-3-3-3-3-3-|-3--3-3---|



chorus (electric ONLY)

e|--x-x-x-x-x|
B|--x-x-x-x-x|
G|--7-7-7-7-7|
D|--7-7-7-7-7| x4
A|--5-5-5-5-5|
E|--5-5-6-6-6|





**lyrics**

i wake up to see
outside on the ground
bodies never found 
peoples faces lying around

i dont know how it happened 
but i never want to do it again
the sky looks hollow
i see fallen shadows

in beneath the world of life and death 
there lay awomen 
that takes ur last breath
away

i need to see you
rise from the ground
leave your soul behind
its not gods work, its mine

im sorry
you had to go
and now your a fallen shadow
blowing in the wind 
leting it take you were ever it will

(scremo)
all i need is some reconishion hhhhrrrraaaaa
listen to meeeeeeeeeee
ooooooooooaaaaaaaaaaaahhhhhhhhh
eeeeeeeeeennnnn 
oooooooooohhhhhhhh
hhhhheeeerrrrAAAAAAAAAAAAAAAA

you better shut up and listen to meeeeeeeeeee
i am ur enemyyyyyyyyy
rrrrrrrrrraaaaaahhaaaaaaaaaaaa
hahaha

(normal)
u should have listen to me
now ur a body onethe ground
ur face is unfamiliar

the sky is hollow
your a 
fallen shadow

reach me at rickdrocks2@yahoo.com
 

myspace.com/fallenshadows20001 
Tap to rate this tab
# A B C D E F G H I J K L M N O P Q R S T U V W X Y Z