Falling In Reverse - The Drug In Me Is You tab

The Drug In Me Is You - Falling In Reverse
Solo Tab by Ray Chen

http://www.youtube.com/watch?v=se6ShnkuScc
^solo cover/tutoral, watch for timing etc.

Here it is!

Drop C Tuning.

~Solo~
D|------------------13--17------12--15------13--17------12--15---------|
A|--------------15----------13----------15----------13----------15~~~~~|
F|----------14---------------------------------------------------------|
C|------15-------------------------------------------------------------|
G|--17-----------------------------------------------------------------|
C|---------------------------------------------------------------------|

D|--18b20r18--17--15------18b20r18--17--15------20b21r20------------|
A|--------------------18--------------------18------------15--------|
F|------------------------------------------------------------17~~~~|
C|------------------------------------------------------------------|
G|------------------------------------------------------------------|
C|------------------------------------------------------------------|

D|------------------13--17--13--------------13--18--13------------------------------13--|
A|--------------15--------------15------15--------------15----------------------15------|
F|----------14----------------------14----------------------14--------------14----------|
C|------15------------------------------------------------------15------15--------------|
G|--17--------------------------------------------------------------17------------------|
C|--------------------------------------------------------------------------------------|

    T                               T                               T
D|-20--15--12--------------12--15--22--15--12--------------12--15--20--15--12--------------12--15|
A|-------------13------13----------------------13------13----------------------13------13--------|
F|-----------------12------------------------------12------------------------------12------------|
C|-----------------------------------------------------------------------------------------------|
G|-----------------------------------------------------------------------------------------------|
C|-----------------------------------------------------------------------------------------------|

    T                               T                               T
D|-20--13--10--------------10--13--22--13--10--------------10--13--22--13--10--------------10--13|
A|-------------11------11----------------------11------11----------------------11------11--------|
F|-----------------10------------------------------10------------------------------10------------|
C|-----------------------------------------------------------------------------------------------|
G|-----------------------------------------------------------------------------------------------|
C|-----------------------------------------------------------------------------------------------|


D|--12--9--------------9--12/15--12--------------12--15/18--15-|
A|---------11------11----------------14------14----------------|
F|-------------12------------------------15--------------------|
C|-------------------------------------------------------------|
G|-------------------------------------------------------------|
C|-------------------------------------------------------------|

-------------15--18/21--18--------------18--21--|
-17------17-----------------20------20----------|
-----18-------------------------21--------------|
------------------------------------------------|
------------------------------------------------|
------------------------------------------------|


D|--21b23~~~|--|
A|----------|--|
F|----------|--|
C|----------|--|
G|----------|--|
C|----------|--|

ENJOY! GOOD LUCK!...

http://www.youtube.com/watch?v=se6ShnkuScc *WATCH*
Tap to rate this tab
 
# A B C D E F G H I J K L M N O P Q R S T U V W X Y Z