Song name
# A B C D E F G H I J K L M N O P Q R S T U V W X Y Z

Falling In Reverse - Caught Like A Fly tab

07/19/11 
Falling In Reverse - Caught Like A Fly
Tabbed by: Devon Horton[Non-Fiction(UG)/iIDevonIi(Youtube)]
Tuning: Drop C[C G C F A D]

All copyrights (©) go to ©Falling In Reverse, ©WMG and ©Epitaph Records!

You can easily hear the stumming pattern in the song so I didn't add it
in the tabs.
This is the first time I've tried to learn a song by ear so it might not
be perfect. 
I will have a cover of this song on my Youtube account soon.

d---------------------------------------------------------|
a-13-11-10-9-8-9-10-12---13-13----6-6-----8-8----6-6------|
F------------------------10-10-x4-3-3-x4--5-5-x4-3-3-x2---|
C---------------------------------------------------------|
G---------------------------------------------------------|
C---------------------------------------------------------|
             
d---------------------------------------------------------|
a------------8-8----6-6----8-8----6-6---------------------|
F------------5-5-x4-3-3-x4-5-5-x4-3-3-x2------------------|
F---------------------------------------------------------|
C-------3/5----------------------------------------3/5----|
G---2-5-----------------------------------------2-5-------|
C-5-------------------------------------------5-----------|

d---------------------------------------------------------|
a-8-8----6-6-----------------8----------------------------|
F-5-5-x4-3-3-x2--------------5-x4-------------------------|
F---------------------------------------------------------|
F---------------------------------------------------------|
C-----------------------3/5--------3--3--5--5-5-3---------|
G-------------------2-5------------3--3--3--3-3-3----2-5--|
C-----------------5----------------3--3---------3--5------|

d---------------------------------------------------------|
a------8-8----6-6----8-8----6-6----6----------------------|
F------5-5-x4-3-3-x4-5-5-x4-3-3-x2-3--3--10-12--8--10-----|
C-3/5---------------------------------1--8--10--6--8------|
G-------------------------------------1--8--10--6--8------|
C-------------------------------------1--8--10--6--8------|

d---------------------------------------------------------|
a---------------------------------------------------------|
F-3--10-12--8---8----6----8----6----------------8----6----|
C-1--8--10--6---5-x8-3-x4-5-x4-3-x2--------3/5--5-x4-3-x4-|
G-1--8--10--6--------------------------2-5----------------|
C-1--8--10--6------------------------5--------------------|

d---------------------------------------------------------|
a-8----6----6---------------------------------------------|
F-5-x4-3-x2-3--3-10--12--8-10--3-10--12--8----------------|
C--------------1--8--10--6--8--1--8--10--6----------------|
G--------------1--8--10--6--8--1--8--10--6----------------|
C--------------1--8--10--6--8--1--8--10--6----------------|

Solo
d---------------------------------------------------------|
a---------------------------------------------------------|
F-5-7-5-7-5-7-3--5-7-5-7-5-7-3--5-7-5-7-5-7-t15p5h7p5h7t15|
C---------------------------------------------------------|
G---------------------------------------------------------|
C---------------------------------------------------------|

d---------------------------------------------------------|
a---------------------------------------------------------|
Fb16r15-5-7-5-7-5-7-3--5-7-5-7-5-7-3--5-7-5-7-5t15p5h7p5h7|
C---------------------------------------------------------|
G---------------------------------------------------------|
C---------------------------------------------------------|

d-----------10h11p10h11p10h11t18p11-18b20r18-18b20r18-----|
a---------------------------------------------------------|
Ft15b16r15------------------------------------------------|
C---------------------------------------------------------|
G---------------------------------------------------------|
C---------------------------------------------------------|

d-18171615------------------------------------------------|
a----------18171615---------------------------------------|
F-------------------18171615------------------------------|
C----------------------------18171615---------------------|
G-------------------------------------18171615-12b13r12---|
C-------------------------------------------------------15|

d---------------------------------------------------------|
a---------------------------------------------------------|
F---------------------------------------------------------|
C----------------------------------------13141516-15161718|
G----------------------12131415-13141516------------------|
C12--10111213-12131415------------------------------------|

d----------------------------19b21r19-20b-20b-------------|
a--------------  ---16h19p16------------------------------|
F15161718--17181920---------------------------------------|
C---------------------------------------------------------|
G---------------------------------------------------------|
C---------------------------------------------------------|

Amazing Piano~


d---------------------------------------------------------|
a---------------------------------------------------------|
F-3-1012-8-3-10-12-8--------------------------------------|
C-1-8-10-6-1-8--10-6-----------3/5-------------3/5--------|
G-1-8-10-6-1-8--10-6-------2-5-------------2-5------------|
C-1-8-10-6-1-8--10-6-5-1-5-----------5-1-5----------5-----|
Tap to rate this tab
 
# A B C D E F G H I J K L M N O P Q R S T U V W X Y Z