Song name
# A B C D E F G H I J K L M N O P Q R S T U V W X Y Z

Falling In Reverse - Pick Up The Phone tab

D[-----------------------------------------------]
F[-----------------------------------------------]
A[-----------------------------------------------]
C[-----9---2-2--4-4-4H5-4---9---2-2--4-4-4H5-4---]
G[-----7---2-2--2-2-2H3-2---7---2-2--2-2-2H3-2---]
C[---------2-2------------------2-2--------------]
                                                  X2
D[-----------------------------------------------]
F[-----------------------------------------------]
A[-----------------------------------------------]
C[-----9---2-2--4-4-4H5-4---9\-------------------]
G[-----7---2-2--2-2-2H3-2---7\-------------------]
C[---------2-2-----------------------------------]

D[------------------------------------------------------------------]
F[------------------------------------------------------------------]
A[------------------------------------------------------------------]
C[------------------------------------------------------------------]
G[-----222222222222222444444444444444555555555555555777777777777777-]
C[-----222222222222222444444444444444555555555555555777777777777777-]
       ............................................................


D[------------------------------------------------------------------]
F[------------------------------------------------------------------]
A[------------------------------------------------------------------]
C[------------------------------------------------------------------]
G[-----2222222222222224444444444444445555555555555557---------------]
C[-----2222222222222224444444444444445555555555555557---------------]
       ..........................................

Chorus
D[------------------------------------------------------------------]
F[------------------------------------------------------------------]
A[------------------------------------------------------------------]
C[-----55555555-2222-5555--55555555-2222-4444--55555555-2222-5555---]
G[-----33333333-2222-5555--33333333-2222-4444--33333333-2222-5555---]
C[--------------2222-5555-----------2222-4444-----------2222-5555---]

D[------------------------]
F[------------------------]
A[------------------------]
C[-----55555555-7777-8888-]
G[-----33333333-5555-6666-]
C[------------------------]


D[-----------------------------------------------]
F[-----------------------------------------------]
A[-----------------------------------------------]
C[-----9---2-2--4-4-4H5-4---9---2-2--4-4-4H5-4---]
G[-----7---2-2--2-2-2H3-2---7---2-2--2-2-2H3-2---]
C[---------2-2------------------2-2--------------]
                                                  X2
D[-----------------------------------------------]
F[-----------------------------------------------]
A[-----------------------------------------------]
C[-----9---2-2--4-4-4H5-4---9\-------------------]
G[-----7---2-2--2-2-2H3-2---7\-------------------]
C[---------2-2-----------------------------------]

D[------------------------------------------------------------------]
F[------------------------------------------------------------------]
A[------------------------------------------------------------------]
C[------------------------------------------------------------------]
G[-----222222222222222444444444444444555555555555555777777777777777-]
C[-----222222222222222444444444444444555555555555555777777777777777-]
       ............................................................


D[-----------------------------------------------------------------]
F[-----------------------------------------------------------------]
A[-----------------------------------------------------------------]
C[-----------------------------------------------------------------]
G[-----2222222222222224444444444444445555555555555557--------------]
C[-----2222222222222224444444444444445555555555555557--------------]
       ..........................................

Chorus
D[-----------------------------------------------------------------]
F[-----------------------------------------------------------------]
A[-----------------------------------------------------------------]
C[-----55555555-2222-5555--55555555-2222-4444--55555555-2222-5555--]
G[-----33333333-2222-5555--33333333-2222-4444--33333333-2222-5555--]
C[--------------2222-5555-----------2222-4444-----------2222-5555--]

D[------------------------]
F[------------------------]
A[------------------------]
C[-----55555555-7777-8888-]
G[-----33333333-5555-6666-]
C[------------------------]

Don't know the solo, but that's pretty much the whole song. Hope this helps.
Tap to rate this tab
 
# A B C D E F G H I J K L M N O P Q R S T U V W X Y Z