Song name
# A B C D E F G H I J K L M N O P Q R S T U V W X Y Z

Falling In Reverse - Im Not A Vampire tab

Right.. This is the first solo I've ever tabbed out! So cut me some slack ;)





D|-------------------|------------------|--------------------------------|--|
A|-------------------|------------------|--10--10--8--10--6--10--5--10---|--|
F|--7--10--9--10---x4|--6--9--7--9----x2|--------------------------------|--|
C|-------------------|------------------|--------------------------------|--|
G|-------------------|------------------|--------------------------------|--|
C|-------------------|------------------|--------------------------------|--|

D|-------------------|--------------9--12--9------------------------------------|--|
A|--6--10--8--10-----|----------11--------------11--------------11--11--10------|--|
F|-----------------x4|--9--12----------------------12--9--12--------------12----|--|
C|-------------------|----------------------------------------------------------|--|
G|-------------------|----------------------------------------------------------|--|
C|-------------------|----------------------------------------------------------|--|

D|-------------------|----------------------------------------|--|
A|-------------------|----------------------------------------|--|
F|--7--10--9--10---x4|--7--9--10--6--7--9--9--10--12--14*-----|--|
C|-------------------|----------------------------------------|--|
G|-------------------|----------------------------------------|--|
C|-------------------|----------------------------------------|--|

D|------------------|----------------------------------------|--|
A|------------------|----------------------------------------|--|
F|--6--9--7--9----x4|--6--7--9--7--9--10--9--10--12--14*-----|--|
C|------------------|----------------------------------------|--|
G|------------------|----------------------------------------|--|
C|------------------|----------------------------------------|--|

D|-----------------|--3-----------3--6--3-----------3--6/9--6--|
A|--6--10--8--10---|-----5-----5-----------5-----5-------------|
F|-----------------|--------6-----------------6----------------|
C|-----------------|-------------------------------------------|
G|-----------------|-------------------------------------------|
C|-----------------|-------------------------------------------|

-------------6/12--9--------------9--12--|--|
-8------8------------11------11----------|--|
-----9--------------------12-------------|--|
-----------------------------------------|--|
-----------------------------------------|--|
-----------------------------------------|--|


D|--16--13------13----------------------------------|--|
A|----------15------15------15----------------------|--|
F|----------------------16------16--13--16--13------|--|
C|----------------------------------------------15--|--|
G|--------------------------------------------------|--|
C|--------------------------------------------------|--|

D|-----------------13h16p13------13h16p13-------------------------|--|
A|-------------15------------15------------15---------------------|--|
F|------13h16----------------------------------16p13--------------|--|
C|--15------------------------------------------------15------13~~|--|
G|--------------------------------------------------------19------|--|
C|----------------------------------------------------------------|--|
Tap to rate this tab
 
# A B C D E F G H I J K L M N O P Q R S T U V W X Y Z