Song name
# A B C D E F G H I J K L M N O P Q R S T U V W X Y Z

Falling In Reverse - The Westerner tab

Band: Falling In Reverse
Song: The Westerner

Only The Intro

e|------------------------------------|
B|------------------------------------|
G|---9-9-9-9-9-9-9-9--7-7-7-7--5-5-5-5|
D|------------------------------------|
A|------------------------------------|
E|------------------------------------|

e|------------------------------------|
B|------------------------------------|
G|---9-9-9-9-9-9-9-9--7-7-7-7----3----|
D|-------------------------------3----|
A|-------------------------------5----|
E|------------------------------------|

e|------------------------------------|
B|------------------------------------|
G|--3-3-3-3-3-3-3-3-------------------|
D|--3-3-3-3-3-3-3-3--8-8-8-8-8-8-8-8--|
A|--5-5-5-5-5-5-5-5--8-8-8-8-8-8-8-8--|
E|-------------------6-6-6-6-6-6-6-6--|

e|------------------------------------|
B|------------------------------------|
G|--3-3-3-3-3-3-3-3-------------------|
D|--3-3-3-3-3-3-3-3--8-8-8-8---8888---|
A|--5-5-5-5-5-5-5-5--8-8-8-8---8888---|
E|-------------------6-6-6-6---6666---|


So I'm honored that i am the first to Tab the Westerner. If you have any corrections or 
anything,email me at erick.garza@rocketmail.com
Tap to rate this tab
 
# A B C D E F G H I J K L M N O P Q R S T U V W X Y Z