Song name
# A B C D E F G H I J K L M N O P Q R S T U V W X Y Z

Falling In Reverse - The Drug In Me Is You tab

-------------------------------------------------------------------------------
             Falling In Reverse - The Drug In Me Is You (Album)
-----------------------------------------------------------------------------

Track Listing:
1. Raised By Wolves
2. Tragic Magic
3. The Drug In Me Is You
4. I'm Not A Vampire
5. Good Girls Like Bad Guys
6. Pick Up The Phone
7. Don't Mess With Ouija Boards
8. Sink Or Swim
9. Caught Like A Fly
10. Goodbye Graceful
11. The Westerner




Falling In Reverse
Raised by Wolves

Drop C Tuning

Intro/Verse

|-----------------------------------------------------------------------------|
|-----------------------------------------------------------------------------|
|-----------------------------------------------------------------------------|
|-2-2-2-2-2-2-2-2-2-2-2-2-2-2-2-2-5-5-5-5-5-5-5-5-5-5-5-5-5-5-5-5-7-7-7-7-7-7-|
|-2-2-2-2-2-2-2-2-2-2-2-2-2-2-2-2-3-3-3-3-3-3-3-3-3-3-3-3-3-3-3-3-5-5-5-5-5-5-|
|-2-2-2-2-2-2-2-2-2-2-2-2-2-2-2-2---------------------------------------------|

p.m.______________________________________________________________________________________

|-----------------------------------------------------|
|-----------------------------------------------------|
|-----------------------------------------------------|
|-7-7-5-5-5-5-4-4-4-4-2-2-2-2-2-2-2-2-2-2-2-2-2-2-2-2-|
|-5-5-3-3-3-3-2-2-2-2-2-2-2-2-2-2-2-2-2-2-2-2-2-2-2-2-|
|---------------------2-2-2-2-2-2-2-2-2-2-2-2-2-2-2-2-|

p.m.________________________________________________________

Repeat intro, except dont palm mute each time you switch to a new chord, listen to the song

Pre Chorus

|--------------------------------------------------------------------|
|--------------------------------------------------------------------|
|--------------------------------------------------------------------|
|-2-2-4-4-5-5-7-7-55-5-5--5-54-5-55--2-2-4-4-5-5-7-7-8-8-8-8-8-8-8-8-|
|-2-2-4-4-5-5-7-7-33-3-3--3-32-3-33--2-2-4-4-5-5-7-7-6-6-6-6-6-6-6-6-|
|-2-2-4-4-5-5-7-7--------------------2-2-4-4-5-5-7-7-----------------|

|-------------------------|
|-------------------------|
|-------------------------|
|-11-11-11-11-11-11-11-11-|
|--9--9--9--9--9--9--9--9-|
|-------------------------|

Chorus

|------------------------------------------------------|
|------------------------------------------------------|
|------------------------------------------------------|
|-5--4--2--4--5--5--7--2--4--5--5--4--7--9---5---8--11-|
|-3--2--2--4--5--3--5--2--4--5--3--2--5--7---3---6---9-|
|-------2--4--5--------2--4--5-------------------------|

Listen to the song to figure out strumming patterns

Post Chorus

|-------------------------|
|-------------------------|
|-------------------------|
|-2-0-2-4-2-4-5-4-5-7-5-4-|
|-2-0-2-4-2-4-5-4-5-7-5-4-|
|-2-0-2-4-2-4-5-4-5-7-5-4-|



Verse

|----------------------------------------------------------|
|----------------------------------------------------------|
|----------------------------------------------------------|
|-2--5--7--5-----------2----0-222-555-777-555----------222-|
|-2--3--5--3--5-3------2----0-222-555-555-555-5-3------222-|
|-2---------------6-2--2----0-222-555-----555-----6-2--222-|


Listen to the song for picking and such, groups of 3 are gallop picking


Pre Chorus

Chorus

Pre Breakdown

|-------------------------|
|-------------------------|
|-------------------------|
|-22--77--00--55--111-111-|
|-22--77--00--55--111-111-|
|-22--77--00--55--111-111-|

Breakdown

|-----------------------|--------------------------------------------|
|-----------------------|--------------------------------------------|
|-----------------------|--------------------------------------------|
|-2--7--0--5--111-111---|-2-3-2--2-2-22-3-2-1--2-3-2--2-2-22-3-2-111-|
|-2--7--0--5--111-111---|-2-3-2--2-2-22-3-2-1--2-3-2--2-2-22-3-2-111-|
|-2--7--0--5--111-111---|-2h3-2--2-2-22-3-2-1--2h3-2--2-2-22-3-2-111-|

Listen to it for strumming patterns, mostly palm muted

Part before final chorus

|---------------------|
|---------------------|
|---------------------|
|-5-----2--2-----4--5-|
|-3-----4--2-----4--5-|
|----------2-----4--5-|

Play Chorus again

Then the 2nd part of the breakdown to end the song


-----------------------------------------------------------------------------


Falling In Reverse - Tragic Magic
Tuning: Drop C[C G C F A D]

. = Palm Mute
o = Light Palm Mute


You can easily hear the stumming pattern in the song so I didn't add it
in the tabs.
I will have a cover of this song on my Youtube account soon.

d---------------------------------------------------------|
a-10----------10-11-------11-10-11------------------------|
F----10----10-------12-12----------12-9-5-7-9-10-5--------|
C-------10-----------------------------------------7--x2--|
G---------------------------------------------------------|
C---------------------------------------------------------|
                 .     .     .     .    .    .
d---------------------------------------------------------|
a---------------------------------------------------------|
F---------------------------------------------------------|
C-0-3-8-7-xx7xx7-----------------------------------7-xxxx-|
G-0-3-8-7-xx5xx5------------------------7-x4-5-x4--5-xxxx-|
C-0-3-8-7--------0-x16-3-x16-8-x16-7-x8--------------xxxx-|

d---------------------------------------------------------|
a-10----------10-11-------11-10-11------------------------|
F----10----10-------12-12----------12-9-5-7-9-10-5--------|
C-------10-----------------------------------------7--x2--|
G---------------------------------------------------------|
C---------------------------------------------------------|
                               .     .     .     .    .
d---------------------------------------------------------|
a---------------------------------------------------------|
F---------------------------------------------------------|
C-3--8---5--3---0-3-8-7-----------------------------------|
G-3--8---5--3---0-3-8-7-------------------------------7-x4|
C-3--8---5--3---0-3-8-7-/13s2--0-x16-3-x16-8-x16-7-x8-----|
  .
d---------------------------------------------------------|
a--------------10----------10-11-------11-10-11-----------|
F-----------------10----10-------12-12----------12-9-5-7--|
C------7-xxxx--------10-----------------------------------|
G-5-x4-5-xxxx---------------------------------------------|
C--------xxxx---------------------------------------------|
                [.]       [.]       [.]       [.]
d---------------------------------------------------------|
a---------------------------------------------------------|
F-9-10-5--------------------------------------------------|
C--------7-x2-33-3------88-8------55-5------33-3----------|
G-------------33-3------88-8------55-5------33-3----------|
C-------------33-3-x14--88-8-x14--55-5-x14--33-3-x14-/13s2|

    [.]       [.]       [.]               . ...... . ..
d---------------------------------------------------------|
a---------------------------------------------------------|
F---------------------------------------------------------|
C-33-3------88-8------55-5------33------------------------|
G-33-3------88-8------55-5------33------------------------|
C-33-3-x14--88-8-x14--55-5-x14--33--/13s2-3-333333-3-33---|
  .. . ...... . .. .. . .. ...... . .. .. . .....  .. 
d---------------------------------------------------------|
a---------------------------------------------------------|
F---------------------------------------------------------|
C-----------------------------------------------------3---|
G-----------------------------------------------------3---|
C-33-8-888888-8-88-88-5-55-555555-5-55-55-3-333333-33x3---|
  o oooooo o oo oo o oooooo o oo oo o oooooo o oo oo o oo
d---------------------------------------------------------|
a---------------------------------------------------------|
F---------------------------------------------------------|
C---------------------------------------------------------|
G---------------------------------------------------------|
C-3-333333-3-33-33-8-888888-8-88-88-5-555555-5-55-55-3-33-|
 oooo o
d---------------------------------------------------------|
a-----------10------10-11-----11-10-11--------------------|
F-------------10--10-----12-12---------12-9-5-7-9-10-5----|
C-------x-3-----10-------------------------------------7x4|
G-------x-3-----------------------------------------------|
C3333-3-x-3-----------------------------------------------|


-----------------------------------------------------------------------------



The Drug In Me Is You:

INTRO                                      ...
d----------------------------------------------------|
a----------------------------------------------------|
F----------------------------------------------------|
C---0-------------0-88---10/---------3-----22222-----|
G---0-------------0-88---10/000------1-----00000-----|
C---0-------------0-88---10/000----------------------|



d------------------------------------------------------|
a------------------------------------------------------|
F------2--3--------------2--3--------------------------|
C--0---2--3--3-2320---0--2--3--77-55-------------------|
G--0---0--1--3-2320---0--0--1--77-55-------------------|
C--0---------3-2320---0--------77-55-------------------|

lead guitar
d---------------------------------------------------------|
a---------------------------------------------------------|
F-----9-10--10------9-10-10-----9-10--10-9-10-9-10-9------|
C--12-----------11-----------12----------------------11---|
G---------------------------------------------------------|
C---------------------------------------------------------|

d--------------------------------------------------|
a--------------------------------------------------|
F-----9-10--10------9-10-10-----9-10--10-10-10/9---|
C--12-----------11-----------12--------------------|
G----------------------------------------88-8/-7---|
C--------------------------------------------------|



harmonic
d---------------------------------------------------------|
a---------------------------------------------------------|
F---12-14--14----12-14--14----12-14--14-12-14-12-14-12----|
C-15----------14-----------15-------------------------14--|
G---------------------------------------------------------|
C---------------------------------------------------------|


d------------------------------------------------------|
a------------------------------------------------------|
F---12-14--14----12-14--14----12-14-14--1414-14/12-----|
C-15----------14-----------15--------------------------|
G---------------------------------------1212-12/10-----|
C------------------------------------------------------|

Verse
P.M......................................................
d---------------------------------------------------------|
a---------------------------------------------------------|
F---------------------------------------------------------|
C---------------------------------------------------------|
G---------------------------------------------------------|
C--0-3-2-3-2-00-3-2-3-2-0-8---3-2-3-2-0-7--777-5-3-2-0----|

P.M..................................................
d----------------------------------------------------|
a----------------------------------------------------|
F----------------------------------------------------|
C----------------------------------------------------|
G----------------------------------------------------|
C--0-3-2-3-2-00-3-2-3-2-0-8---3-2-3-2-0-7------------|

P.M......................................................
d---------------------------------------------------------|
a---------------------------------------------------------|
F---------------------------------------------------------|
C---------------------------------------------------------|
G---------------------------------------------------------|
C--0-3-2-3-2-00-3-2-3-2-0-8---3-2-3-2-0-7--777-5-3-2-0----|

P.M........................
d--------------------------------------|
a--------------------------------------|
F--------------------------------------|
C---------------------------8888--7----|
G---------------------------8888--7----|
C--0-3-2-3-2-00-3-2-3-2-0-8-8888--7----|



Verse
lead guitar harmonic
P.M.........................................................................
d-----------------------------------------------------------------------------|
a-----------------------------------------------------------------------------|
F-----------------------------------------------------------------------------|
C-----------------------------------------------------------------------------|
G--8--12-10-12-10-8-8---12-10-12-8-5--12-10-12-8-7---121212-10-8-7-5----------|
C-----------------------------------------------------------------------------|

P.M............................
d-----------------------------------------------------------------------------|
a-----------------------------------------------------------------------------|
F-----------------------------------------------------------------------------|
C--------------------------------8888--7--------------------------------------|
G--12-10-12-10-8-8---12-10-12-8--8888--7--------------------------------------|
C--------------------------------8888--7--------------------------------------|



Chorus                     ,,(Can't you see...)
d----------------------------------------------------------------------------|
a----------------------------------------------------------------------------|
F-------2--3--------2--3-----------------------------------------------------|
C---3-0-2--3---3-0--2--3-----5/----------------------------------------------|
G---3-0-0--1---3-0--0--1-----3/----------------------------------------------|
C---3-0--------3-0-----------------------------------------------------------|


Lead Guitar                                                          2x
d--------------------------------------------------------------------------|
a--------------------------------------------------------------------------|
F--10101010101010999999----------77777777799999999910101010101010----------|
C-----------------------10101777-------------------------------------------|
G--------------------------------------------------------------------------|
C--------------------------------------------------------------------------|

Rythm Guitar
d---------------------------------------------------------------------------|
a---------------------------------------------------------------------------|
F-----2--3------------------------------------------------------------------|
C--0--2--3---33232----------------------------------------------------------|
G--0--0--1---33232----------------------------------------------------------|
C--0---------33232----------------------------------------------------------|

lead guitar
d-----------------------------------------------------------------|
a-----------------------------------------------------------------|
F-----9-10--10------9-10-10-----9-10--10-999-10-9-10-9------------|
C--12-----------11-----------12--------------------------11-------|
G-----------------------------------------------------------------|
C-----------------------------------------------------------------|

lead guitar
d----------------------------------------------------------------------------|
a----------------------------------------------------------------------------|
F---12-14--14----12-14--14----12-14--14-121212-14-12-14-12-------------------|
C-15----------14-----------15------------------------------14----------------|
G----------------------------------------------------------------------------|
C----------------------------------------------------------------------------|




Verse - first bass then you'll join
P.M.....................................................................
d-----------------------------------------------------------------------------|
a-----------------------------------------------------------------------------|
F-----------------------------------------------------------------------------|
C-----------------------------------------------------------------------------|
G-----------------------------------------------------------------------------|
C--0-3-2-3-2-00-3-2-3-2-0-8---3-2-3-2-0-7-------------------------------------|


After that
all palm muted listen to the song for struming
Rythm Guitar
P.M........................................
d-------------------------------------------|
a-------------------------------------------|
F-------------------------------------------|
C--0-------------------8--------------------|
G--0--00-00--000-000---8--88-88--777-777----|
C--0--00-00--000-000---8--88-88--777-777----|

P.M...........................................
d---------------------------------------------|
a---------------------------------------------|
F---------------------------------------------|
C--0------------------------------------------|
G--0--00-00--000-000--------------------------|
C--0--00-00--000-000--------------------------|


lead guitar (pick fast)
P.M..............................................p.m
d--------------------------------------------------|
a--------------------------------------------------|
F--------------------------------------------------|
C--12-15141514--12-15141514----15141514------------|
G---------------------------13---------12----------|
C-----------------------------------------1514-----|

P.M..................................................
d-------------------------------------------------|
a-------------------------------------------------|
F-------------------------------------------------|
C--12-15141514-12-15141514---15141514-------------|
G--------------------------13---------1212121212--|
C-------------------------------------------------|




Chorus                     ,,(Can't you see...)
d------------------------------------------|
a------------------------------------------|
F------------------------------------------|
C---3-0-2--3---3-0--2--3-----5/------------|
G---3-0-0--1---3-0--0--1-----3/------------|
C---3-0--------3-0-------------------------|


lead guitar                                                               2x
d----------------------------------------------------------------------------|
a----------------------------------------------------------------------------|
F--10101010101010999999----------77777777799999999910101010101010------------|
C-----------------------1010777----------------------------------------------|
G----------------------------------------------------------------------------|
C----------------------------------------------------------------------------|



Solo Rythm
d--------------------------------------------|
a--------------------------------------------|
F---------3------2-2-----------7-------------|
C--0--2---3--3---2-2-----0--2--x--77-55------|
G--0--2---1--3---0-0-----0--2--5--77-55------|
C--0--2------3-----------0--2-----77-55------|

SOLO !!!!!!!!!!!!!!!

                   T
d-----------------22----15----17---15-------/20-18-17----------|
a-----------15h18-----14----14---14---14-15----------20v-18----|
F--------14---------14----14---14---14-------------------------|
C-----15----------17----17---17---17---------------------------|
G--17----------------------------------------------------------|
C--------------------------------------------------------------|

                         Pinch harmonic
d--/20-18-17-----------------------------------------|
a------------20v-18------*15v*-15-15v----------------|
F----------------------------------------------------|
C----------------------------------------------------|
G----------------------------------------------------|
C----------------------------------------------------|

harmonic part            Pinch harmonic
d--/24-22-20-----------------------------------|
a------------23v-22----------------------------|
F------------------------*17v*-17-17v----------|
C----------------------------------------------|
G----------------------------------------------|
C----------------------------------------------|

d----------------17---------------18------------------|
a----------15-18----18-15---15-18---18-15-------------|
F-------14----------------14-------------14-----------|
C-----15-----------------------------------15---------|
G--17----------------------------------------17-------|
C-----------------------------------------------------|


d-----------------20-----------------------22------------------|
a-----------17-20---20-17-------------17-20--20-17-------------|
F--------17--------------17---------17------------17-----------|
C-----17-------------------17-----17----------------17---------|
G--19------------------------19-19--------------------19-------|
C--------------------------------------------------------------|


d--------------20-------------------20---------------20-22---|
a--------17-20----20-17---------------18-----------18--------|
F------17--------------17-------17-19---19-------19----------|
C----17------------------17--17-----------19---19------------|
G--19----------------------19----------------20--------------|
C------------------------------------------------------------|


d---------------------------18----------------21----------|
a-------17202017--------1720--2017--------2023--2320------|
F-18--18--------18----18----------18----21----------21----|
C---20------------2020--------------2023------------------|
G---------------------------------------------------------|
C---------------------------------------------------------|

d--------21-24-21-------22v--------------------------|
a---20-23--------231823------------------------------|
F----------------------------------------------------|
C----------------------------------------------------|
G----------------------------------------------------|
C----------------------------------------------------|

Harmonics
d------------------------------15-----------------18----------|
a----------14171714-------1417---1714---------1720--2017------|
F---15---15--------15---15------------15----18----------18----|
C------17------------1717---------------1719------------------|
G-------------------------------------------------------------|
C-------------------------------------------------------------|


d---------18-21-18-------20v--------------------------|
a---17-20---------20---20-----------------------------|
F--------------------21-------------------------------|
C-----------------------------------------------------|
G-----------------------------------------------------|
C-----------------------------------------------------|


Bridge
d------------------------------------------------------|
a------101088-----1111-1010-----101088-----556666------|
F------------------------------------------------------|
C--00--7-7-55--77-8-8--7-7--88--7-7-55--55-223333------|
G--00----------77-----------88----------55-------------|
C--00----------77-----------88----------55-------------|

d------------------------------------------------------|
a------101088-----1111-1010-----101088-----------------|
F------------------------------------------------------|
C--00--7-7-55--77-8-8--7-7--88--7-7-55--55-77----------|
G--00----------77-----------88----------55-77----------|
C--00----------77-----------88----------55-77----------|


Chorus                     ,,(Can't you see...)
d-------------------------------------------------|
a-------------------------------------------------|
F-------2--3--------2--3--------------------------|
C---3-0-2--3---3-0--2--3-----5/-------------------|
G---3-0-0--1---3-0--0--1-----3/-------------------|
C---3-0--------3-0--------------------------------|


lead guitar                                                  2x
d--------------------------------------------------------------------|
a--------------------------------------------------------------------|
F--10101010101010999999----------77777777799999999910101010101010----|
C-----------------------10101777-------------------------------------|
G--------------------------------------------------------------------|
C--------------------------------------------------------------------|


OUTRO
d------------------------------------------|
a------------------------------------------|
F-----2--3---------------------------------|
C--0--2--3---3--2--------------------------|
G--0--0--1---3--2--------------------------|
C--0---------3--2--------------------------|


lead guitar                                          2x
d-----------------------------------------------------------------|
a-----------------------------------------------------------------|
F-----9-10--10------9-10-10-----9-10--10-9-10-9-10-9--------------|
C--12-----------11-----------12----------------------11-----------|
G-----------------------------------------------------------------|
C-----------------------------------------------------------------|


Harmonics
d----------------------------------------------------------|
a----------------------------------------------------------|
F---12-14--14----12-14--14----12-14--14-12-14-12-14-12-----|
C-15----------14-----------15-------------------------14---|
G----------------------------------------------------------|
C----------------------------------------------------------|

END
d-------------------------------|
a-------------------------------|
F-------------------------------|
C--0----------------------------|
G--0(let ring)------------------|
C--0----------------------------|

-----------------------------------------------------------------------------


I'm Not A Vampire Solo:

E|-------------------|------------------|--------------------------------|--|
B|-------------------|------------------|--10--10--8--10--6--10--5--10---|--|
G|--7--10--9--10---x4|--6--9--7--9----x2|--------------------------------|--|
D|-------------------|------------------|--------------------------------|--|
A|-------------------|------------------|--------------------------------|--|
D|-------------------|------------------|--------------------------------|--|

E|-------------------|--------------9--12--9------------------------------------|--|
B|--6--10--8--10-----|----------11--------------11--------------11--11--10------|--|
G|-----------------x4|--9--12----------------------12--9--12--------------12----|--|
D|-------------------|----------------------------------------------------------|--|
A|-------------------|----------------------------------------------------------|--|
D|-------------------|----------------------------------------------------------|--|

E|-------------------|----------------------------------------|--|
B|-------------------|----------------------------------------|--|
G|--7--10--9--10---x4|--7--9--10--6--7--9--9--10--12--14*-----|--|
D|-------------------|----------------------------------------|--|
A|-------------------|----------------------------------------|--|
D|-------------------|----------------------------------------|--|

E|------------------|----------------------------------------|--|
B|------------------|----------------------------------------|--|
G|--6--9--7--9----x4|--6--7--9--7--9--10--9--10--12--14*-----|--|
D|------------------|----------------------------------------|--|
A|------------------|----------------------------------------|--|
D|------------------|----------------------------------------|--|

E|-----------------|--3-----------3--6--3-----------3--6/9--6--|
B|--6--10--8--10---|-----5-----5-----------5-----5-------------|
G|-----------------|--------6-----------------6----------------|
D|-----------------|-------------------------------------------|
A|-----------------|-------------------------------------------|
D|-----------------|-------------------------------------------|

-------------6/12--9--------------9--12--|--|
-8------8------------11------11----------|--|
-----9--------------------12-------------|--|
-----------------------------------------|--|
-----------------------------------------|--|
-----------------------------------------|--|


E|--16--13------13----------------------------------|--|
B|----------15------15------15----------------------|--|
G|----------------------16------16--13--16--13------|--|
D|----------------------------------------------15--|--|
A|--------------------------------------------------|--|
D|--------------------------------------------------|--|

E|-----------------13h16p13------13h16p13-------------------------|--|
B|-------------15------------15------------15---------------------|--|
G|------13h16----------------------------------16p13--------------|--|
D|--15------------------------------------------------15------13~~|--|
A|--------------------------------------------------------19------|--|
D|----------------------------------------------------------------|--|

-----------------------------------------------------------------------------


Good Girls Bad Guys:



F|-------------------|
C|-------------------|
G|-11111111-33333333-|
C|-------------------|

Pre Verse
0:14
F|------------------------------------------------------|
C|---------------------3~-------------------------------|
G|-5535--111-333-5535----4~-5535--11~-33~-5535-3~-3/7\0-|
C|------------------------------------------------------|

Verse
0:29
F|---------------------------------------------------|
C|---------------------3~-----------------------3~---|
G|-5535--111-333-5535----4~-5535--11~-33~-5535----4~-|
C|---------------------------------------------------|

Pre Chorus
0:42
F|-------------------------------------------------------------------|
C|-------------------------------------------------------------------|
G|-5(x16)---4(x16)---1(x16)---3(x16)---5(x16)---4(x16)---1~--0~-3-44-|
C|-------------------------------------------------------------------|

Chorus
0:55
F|---------------------------------------|
C|---------------------------------------|
G|-555-1-111------3333-11111111-33333333-|x2
C|-----------3333------------------------|

Pre Verse
1:08
F|--------------------------|
C|---------------------3~---|
G|-5535--111-333-5535----4~-|
C|--------------------------|

Verse
1:10
F|---------------------------------------------------|
C|---------------------3~~----------------------3~---|
G|-5535--11~-33~-5535-------5535--11~-33~-5535----4~-|
C|---------------------------------------------------|

Pre Chorus
1:27
F|-------------------------------------------------------------------|
C|-------------------------------------------------------------------|
G|-5(x16)---4(x16)---1(x16)---3(x16)---5(x16)---4(x16)---1~--0~-3-44-|
C|-------------------------------------------------------------------|

Chorus
1:40
F|--------------------------------------|
C|--------------------------------------|
G|-555-1-111-----3333-11111111-33333333-|x2
C|-----------3333-----------------------|

Post Chorus
1:54
F|-----------------------|
C|-----------------------|
G|-----1-3~-----11111131-|
C|-0~~------0~~----------|

Breakdown(Pre Solo)
2:00
F|------------------------------------|
C|------------------------------------|
G|----------------------------111-333-|x2
C|-33333333-22222222-00000000---------|

Solo
2:13
F|------------------------------------------------------|
C|---------------------3~------------------------3~--3\-|
G|-5535--11~-33~-5535----4~---5535--11~-33~-5535---4~---|
C|------------------------------------------------------|

~break~

Chorus
2:37                          x3
F|------|----------------------|-------------------|
C|------|o--------------------o|-------------------|
G|--33--|o-555-1-111-----3333-o|-11111111-33333333-|
C|------|------------3333------|-------------------|

                       x3
F|----------------------|--------------------------------------------|
C|o--------------------o|--------------------------------------------|
G|o-555-1-111-----3333-o|-11111111-33333333-11111111-33333353--5535\-|
C|------------3333------|--------------------------------------------|


-----------------------------------------------------------------------------


Song: Pick Up The Phone
Album: The Drug In Me Is You


*ALL RIGHTS GO TO FALLING IN REVERSE & EPITAPH RECORDS*

Hi, this is my partake of this tab. Some parts
are off such as the chorus, it was the best I could hear,
and sorry guys no solo. Not sure if it was in Drop C but I think it sounds better in 
Drop D. Feel free to move up the fret.

[Intro]
Bass & Drums Start Off...

0:17-0:28
E|--------------------------|
B|--------------------------|
G|--------------------------|
D|--7-7---------------------|x3
A|--5-57-77-7h8-7h8---------|
D|-----7-77-7h8-7h8---------|

0:45-0:56
E|--------------------------|
B|--------------------------|
G|--------------------------|
D|--7-7---------------------|x3
A|--5-57-77-7h8-7h8---------|
D|-----7-77-7h8-7h8---------|

0:59-1:11
E|--------------------------|
B|--------------------------|
G|--------------------------|x2
D|-7---9---10--12-----------|
A|-5---7---8---10-----------|
D|-PM--PM--PM--PM-----------|

[Chorus]
1:12-1:38
E|--------------------------|
B|--------------------------|
G|--7/5/7-------------------|
D|--x/x/x-7--8--5-----------|
A|--5/3/5-7--8--5-----------|
D|--------7--8--5-----------|

1:39-1:49
E|--------------------------|
B|--------------------------|
G|--------------------------|
D|--7-7---------------------|x3
A|--5-57-77-7h8-7h8---------|
D|-----7-77-7h8-7h8---------|

(Echo effect prt.)
1:52-2:10
E|--------------------------|
B|--------------------------|
G|-------7~-----------------|
D|-------7~-----------------| x4
A|-------5~-----------------|
D|--------------------------|

2:13-2:23
E|--------------------------|
B|--------------------------|
G|--------------------------|
D|--7-7---------------------|x3
A|--5-57-77-7h8-7h8---------|
D|-----7-77-7h8-7h8---------|

2:27-2:39
E|--------------------------|
B|--------------------------|
G|--------------------------|x2
D|-7---9---10--12-----------|
A|-5---7---8---10-----------|
D|-PM--PM--PM--PM-----------|

2:40-3:05
E|--------------------------|
B|--------------------------|
G|--7/5/7-------------------|
D|--x/x/x-7--8--5-----------|
A|--5/3/5-7--8--5-----------|
D|--------7--8--5-----------|

[Breakdown]
E|--------------------------|
B|--------------------------|
G|--15--14--12--10----------|
D|--x---x---x---x-----------|
A|--13--12--10--8-----------|
D|--------------------------|

(SOLO....)

3:37-3:48
E|--------------------------|
B|--------------------------|
G|------7~------------------|
D|------7~------------------|
A|------5~------------------|
D|--------------------------|

[Chorus]
3:51-4:16
E|--------------------------|
B|--------------------------|
G|--7/5/7-------------------|
D|--x/x/x-7--8--5-----------|
A|--5/3/5-7--8--5-----------|
D|--------7--8--5-----------|

4:17-4:27
E|--------------------------|
B|--------------------------|
G|--------------------------|
D|--7-7---------------------|x3
A|--5-57-77-7h8-7h8---------|
D|-----7-77-7h8-7h8---------|

"We're sorry, the number you have dialed is not in service. Fuck You."


-----------------------------------------------------------------------------

Don't Mess With Ouija Boards:


F|---------------------------------------------------------------------------------|
C|---------------------------------------------------------------------------------|
G|-----0~~-3~~-5~-4~------------------00000-0-00000-0-33333-3-33333-3-5(x8)-4(x8)--|
C|-0~~---------------00000-0-00000-0-----------------------------------------------|

F|----------------------------------------------|
C|----------------------------------------------|
G|-----------------------------------------4~0~-|
C|-0~0(x14)---0~0(x14)---5~5(x14)--5~5(x8)------|

F|---------------------------------------------|
C|---------------------------------------------|
G|-----------------------------------------4-0-|
C|-0-0000-000-0-0000-000-5-5555-555-5-5555-----|

~break~

F|------------------------------------|
C|--------------------------3(x8)--5--|
G|-3(x16)---1(x16)---5(x16)-----------|
C|------------------------------------|

F|-------------------------------------------------------------------------|
C|-------------------------------------------------------------------------|
G|-3(x8)--1(x8)-------------------33333335-11111135---------------------0~-|
C|---------------0(x8)--44445555--------------------0(x8)--44445555--0~----|

F|------------------------------------------|
C|------------------------------------------|
G|------------------------------------------|
C|-0~0(x14)---0~0(x14)---5~5(x14)--5~5(x8)--|

F|------------------------------------------|
C|------------------------------------------|
G|--------------------------------0(x8)--4~-|
C|-0-0000-000-0-0000-000-5(x16)-------------|

F|------------------------------------------------------------------|
C|------------------------------------------------------------------|
G|-3(x8)--1(x8)-------------------33333335-11111135-----------------|
C|---------------0(x8)--44445555--------------------0(x8)--44445555-|

F|----------------------|
C|----------------------|
G|-----0~~-3~~-5~-4~----|
C|-0~~---------------0--|

F|--------------------------------------------------------------------------|
C|--------------------------------------------------------------------------|
G|-1310--------------------------1310-------------1310-------------1310-----|
C|-----5753-0-043-354----0(x24)------5753-0(x24)------5753-0(x24)------5753-|

F|---------------------------------------------------|
C|---------------------------------------------------|
G|---------1310---------------------0000-00-1310-----|
C|-0(x24)------5753-5555-55-5555-55-------------5753-|

F|---------------------------------------------------|
C|---------------------------------------------------|
G|---------1310---------------------0000-00-1310-----|
C|-0(x24)------5753-5555-55-5555-55-------------5753-|

F|-----------------------------------|
C|-----------------------------------|
G|---------1310-------------1310-----|
C|-0(x24)------5753-0(x24)------5753-|

F|-------------------------------------------------------------------------------|
C|-------------------------------------------------------------------------------|
G|-11111113-111111345----------------------11111113-111111345--------------------|
C|--------------------0000000-00-3333333-33-------------------0000000-00-3333-3\-|

F|-----------------------------------------------------------|
C|-----------------------------------------------------------|
G|-----------------------------------------------------------|
C|-0-0000---0000-0-0000--0000-000000-0-0000---0000-0-0000----|

F|----------------------------------------------------------------------|
C|----------------------------------------------------------------------|
G|----------------------------------------------------------------------|
C|-0-0000---0000-0-0000--0000-000000-0-0000---0000-0-0000--0000-000000--|

F|-----------------|
C|-----------------|
G|-----0~~-----0~~-|
C|-0~~-----0~~-----|

F|------------------------------------|
C|--------------------------3(x8)--5--|
G|-3(x16)---1(x16)---5(x16)-----------|
C|------------------------------------|

F|------------------------------------------------------------------|
C|------------------------------------------------------------------|
G|-3(x8)--1(x8)-------------------33333335-11111135-----------------|
C|---------------0(x8)--44445555--------------------0(x8)--44445555-|

F|-----------------------------------------------------------------|
C|-----------------------------------------------------------------|
G|-3(x8)--1(x8)-------------------33333335-11111135----------------|
C|---------------0(x8)--44445555--------------------0(x8)--44445\--|

F|-------------------------------------------------------------------|
C|-------------------------------------------------------------------|
G|-------------------------------------------------------------------|
C|-0-0000---0000-0-0000--0000-000000-0-0000---0000-0-0000--xxxx-xxxx-|

F|---------------------------------------------------------------------|
C|---------------------------------------------------------------------|
G|---------------------------------------------------------------------|
C|-0-0000---0000-0-0000--0000-000000-0-0000---0000-0-0000--0000-000000-|

It ain't perfect, but enjoy!



-----------------------------------------------------------------------------


Sink Or Swim:



F|------------------------------------------------------------------|
C|------------------------------------------------------------------|
G|-----------------1--1(x9)--1(x8)----------------------------------|
C|-0--0(x9)--0(x8)-----------------5--5(x9)--5(x8)-0--0(x9)--0(x8)--|

F|-----------------------------------------------------------|
C|-----------------------------------------------------------|
G|-----------------1--1(x9)--1(x8)---------------------------|
C|-0--0(x9)--0(x8)-----------------5--5(x9)--5(x8)-0--0(x9)--|

0:26
F|---------------------------------------|
C|-------------------------------------2-|
G|----------------------------------34---|
C|-0(x10)--0-00-00000--0(x10)--0-00------|

F|---------------------------------------|
C|-------------------------------------1-|
G|----------------------------------34---|
C|-5(x10)--5-55-55555--5(x10)--5-55------|

0:39
F|---------------------------------------|
C|-------------------------------------2-|
G|----------------------------------34---|
C|-0000000000~~00~00~0000000000~~00~-----|

F|-------------------------------------|
C|-------------------------------------|
G|-------------------------------------|
C|-5555555555~~55~55~5555555555~~5432--|

0:52
F|--------------------------------------------|
C|--------------------------------------------|
G|-------------------53--1(x16)---3(x8)-------|
C|-0(x16)---3(x12)--3-------------------2(x8)-|

F|-----------------------------------------------|
C|-----------------------------------------------|
G|-------------------53--1(x16)---44444464-0(x8)-|
C|-0(x16)---3(x12)--3----------------------------|

1:18
F|-------------|
C|-------------|
G|-------------|
C|-0-----0(x7)-|

1:24
F|------------------------------------------------------------------|
C|------------------------------------------------------------------|
G|-----------------1--1(x9)--1(x8)----------------------------------|
C|-0--0(x9)--0(x8)-----------------5--5(x9)--5(x8)-0--0(x9)--0(x8)--|

F|--------------------------------------------------------------|
C|--------------------------------------------------------------|
G|-----------------1--1(x9)--1(x8)------------------------------|
C|-0--0(x9)--0(x8)-----------------5--5(x9)--5(x8)-0--0000000~~-|

1:50
F|---------------------------------------|
C|-------------------------------------2-|
G|----------------------------------34---|
C|-0000000000~~00~00~0000000000~~00~-----|

F|-----------------------------------|
C|-----------------------------------|
G|-----------------------------------|
C|-5555555555~~55~55~5555555555~~55--|

2:03
F|--------------------------------------------|
C|--------------------------------------------|
G|-------------------53--1(x16)---3(x8)-------|
C|-0(x16)---3(x12)--3-------------------2(x8)-|

F|--------------------------------------------------|
C|--------------------------------------------------|
G|-------------------53--1(x16)---44444464-0(x8)----|
C|-0(x16)---3(x12)--3-----------------------------0-|

~~break~~

3:00
F|----------------------------------------|
C|----------------------------------------|
G|----------------------------------------|x2
C|-0(x10)--0-00-00000--0(x10)--0-00-00000-|

3:13
F|----------------------------------------|
C|----------------------------------------|
G|----------------------------------------|
C|-0(x10)--0-00-00000--3(x10)--3-33-33333-|

F|--------------------------------|
C|--------------------------------|
G|-1(x10)--1-11-11111--3(x10)--3--|
C|--------------------------------|

3:26
F|--------------------------------------------|
C|--------------------------------------------|
G|-------------------53--1(x16)---3(x8)-------|
C|-0(x16)---3(x12)--3-------------------2(x8)-|

F|-----------------------------------------------|
C|-----------------------------------------------|
G|-------------------53--1(x16)---44444464-0(x8)-|
C|-0(x16)---3(x12)--3----------------------------|

F|--------------------------------------------|
C|--------------------------------------------|
G|-------------------53--1(x16)---3(x8)-------|
C|-0(x16)---3(x12)--3-------------------2(x8)-|

F|--------------------------------------------------|
C|--------------------------------------------------|
G|-------------------53--1(x16)---44444464-0(x8)----|
C|-0(x16)---3(x12)--3-----------------------------0-|



-----------------------------------------------------------------------------


Falling In Reverse - Caught Like A Fly
Tuning: Drop C[C G C F A D]

All copyrights (©) go to ©Falling In Reverse, ©WMG and ©Epitaph Records!

You can easily hear the stumming pattern in the song so I didn't add it
in the tabs.
This is the first time I've tried to learn a song by ear so it might not
be perfect.
I will have a cover of this song on my Youtube account soon.

d---------------------------------------------------------|
a-13-11-10-9-8-9-10-12---13-13----6-6-----8-8----6-6------|
F------------------------10-10-x4-3-3-x4--5-5-x4-3-3-x2---|
C---------------------------------------------------------|
G---------------------------------------------------------|
C---------------------------------------------------------|

d---------------------------------------------------------|
a------------8-8----6-6----8-8----6-6---------------------|
F------------5-5-x4-3-3-x4-5-5-x4-3-3-x2------------------|
F---------------------------------------------------------|
C-------3/5----------------------------------------3/5----|
G---2-5-----------------------------------------2-5-------|
C-5-------------------------------------------5-----------|

d---------------------------------------------------------|
a-8-8----6-6-----------------8----------------------------|
F-5-5-x4-3-3-x2--------------5-x4-------------------------|
F---------------------------------------------------------|
F---------------------------------------------------------|
C-----------------------3/5--------3--3--5--5-5-3---------|
G-------------------2-5------------3--3--3--3-3-3----2-5--|
C-----------------5----------------3--3---------3--5------|

d---------------------------------------------------------|
a------8-8----6-6----8-8----6-6----6----------------------|
F------5-5-x4-3-3-x4-5-5-x4-3-3-x2-3--3--10-12--8--10-----|
C-3/5---------------------------------1--8--10--6--8------|
G-------------------------------------1--8--10--6--8------|
C-------------------------------------1--8--10--6--8------|

d---------------------------------------------------------|
a---------------------------------------------------------|
F-3--10-12--8---8----6----8----6----------------8----6----|
C-1--8--10--6---5-x8-3-x4-5-x4-3-x2--------3/5--5-x4-3-x4-|
G-1--8--10--6--------------------------2-5----------------|
C-1--8--10--6------------------------5--------------------|

d---------------------------------------------------------|
a-8----6----6---------------------------------------------|
F-5-x4-3-x2-3--3-10--12--8-10--3-10--12--8----------------|
C--------------1--8--10--6--8--1--8--10--6----------------|
G--------------1--8--10--6--8--1--8--10--6----------------|
C--------------1--8--10--6--8--1--8--10--6----------------|

Solo[Thanks for porpoiseboy101 for correcting the solo]
|---------------------------------------------------------------------|
|-------------------------------------------11~--------/13-11~--------|
|-7h8-7h8-7h8----7h8-7h8-7h8----7h8-7h8-7h8-----7h8-7h8---------------|
|-------------8~-----------8~-----------------------------------------|
|---------------------------------------------------------------------|
|---------------------------------------------------------------------|

|---------------------------------------------------------------------|
|-------------------------------------------11~-----------------------|
|-7h8-7h8-7h8----7h8-7h8-7h8----7h8-7h8-7h8-----7-8-7--78107810-------|
|-------------8~-------------8~------------------8-8-8---------578----|
|---------------------------------------------------------------------|
|---------------------------------------------------------------------|


|-------------------18----22b24b22-18~-22b24b22-18/20-----------------|
|-15h16-15h16-15h16----16---------------------------------------------|
|---------------------------------------------------------------------|
|---------------------------------------------------------------------|
|---------------------------------------------------------------------|
|---------------------------------------------------------------------|

|-15h16p15h16---------------------------------------------------------|
|------------1616-----------------------------------------------------|
|----------------1515-------------------------------------------------|
|--------------------181817-------------------------------------------|
|--------------------------1813\11-10-10/11-10-8\6--------------------|
|---------------------------------------------------------------------|

d---------------------------------------------------------|
a---------------------------------------------------------|
F---------------------------------------------------------|
C----------------------------------------13141516-15161718|
G----------------------12131415-13141516------------------|
C--10111213-12131415--------------------------------------|

d----------------------------19b21r19-20b-20b-------------|
a--------------  ---16h19p16------------------------------|
F15161718--17181920---------------------------------------|
C---------------------------------------------------------|
G---------------------------------------------------------|
C---------------------------------------------------------|

Amazing Piano~


d---------------------------------------------------------|
a---------------------------------------------------------|
F-3-1012-8-3-10-12-8--------------------------------------|
C-1-8-10-6-1-8--10-6-----------3/5-------------3/5--------|
G-1-8-10-6-1-8--10-6-------2-5-------------2-5------------|
C-1-8-10-6-1-8--10-6-5-1-5-----------5-1-5----------5-----|


-----------------------------------------------------------------------------


Goodbye Graceful:



F|------------------------------------------------------------------------------------|
C|------------------------------------------------------------------------------------|
G|------------------------------------------------------------------------------------|
C|-5\-0(x10)-00-000-0(x8)-0(x10)-00-000-0(x8)-0(x10)-00-000-0(x8)-0(x10)-00-000-0(x8)-|

0:12
F|------------------------------------------------------------|
C|------------------------------------------------------------|
G|------------------------------------------------------------|
C|-0-0-0-0-0(x8)--0-0-0-0-0(x8)--0-0-0-0-0(x8)--0-0-0-0-0(x8)-|

F|---------------------------------------------------------|
C|---------------------------------------------------------|
G|---------------------------------------------------------|
C|-0-0-0-0-0(x8)--0-0-0-0-0(x8)--0-0-0-0-0(x8)--0-0-0-0-0--|

0:25
F|-------------------------------------------------------------|
C|-------------------------------------------------------------|
G|-1-1(x14)-------------------0-1(x10)-3(x4)-------------------|
C|------------0-0(x8)--3(x6)-----------------5-3(x8)-35-13-135-|

F|------------------------------------------------------------------|
C|------------------------------------------------------------------|
G|-0-1(x14)-------------------0-1(x10)-3(x4)------------------------|
C|------------0-0(x8)--3(x6)-----------------5-3(x8)-35-13-135-3510-|

0:53
F|-------------------------------------------------------------|
C|-------------------------------------------------------------|
G|-------------------------------------------------------------|
C|-0(x10)-00--0(x18)-00--000000-0(x10)-00---0(x10)-00---000000-|

1:05
F|--------------------------------------------------------------------------|
C|--------------------------------------------------------------------------|
G|-------------------------------------------------------0--------0---------|
C|-0(x10)-00--0(x18)-00--000000-0(x10)-00---0(x10)-00--35-10135-35-10135-75-|

1:24
F|--------------------------------------------------|
C|--------------------------------------------------|
G|-----------------0-1(x10)-3(x4)-------------------|
C|-0-0(x8)--3(x6)-----------------5-3(x8)-35-13-135-|

F|-----------------------------------------------------------------------|
C|-----------------------------------------------------------------------|
G|-0-1(x14)-------------------0-1(x10)-3(x4)-----------------------------|
C|------------0-0(x8)--3(x6)-----------------5-3(x8)-35-13-135-35-13-135-|

1:48
F|---------------------------------------------------------------|
C|---------------------------------------------------------------|
G|---------3-33--------------------3-33-----------3-33-----------|
C|-5(x16)-------0-1-1(x7)--5(x16)-------0-1-1(x7)------0-1~--0~--|

 2:10    2:14
F|----------------|
C|----------------|
G|----------------|
C|-0------0--6856-|

2:17
F|-----------------------------------------------------------|
C|-----------------------------------------------------------|
G|-----------------------------------------------------------|
C|-0-0111-0-0111-0-0111-011-011-0-0111-0-0111-0-0111-500-700-|

F|-----------------------------------------------------------|
C|-----------------------------------------------------------|
G|-----------------------------------------------------------|
C|-0-0111-0-0111-0-0111-022-011-0-0111-0-0111-0-600800500600-|

2:29
F|------------------------------------|
C|------------------------------------|
G|------------------------------------|
C|-8-7-6-5-6-5-4-3-5-4-3-2-3-2-1--0---|

2:38
F|----------------------------------------------------|
C|----------------------------------------------------|
G|--------1(x8)-0000----------------------------------|
C|-5(x16)-----------3333-11111-111111-1-1-11111-11111-|

F|-----------------------------------------------------|
C|-----------------------------------------------------|
G|------------------11111-11-000-----------------------|
C|-55555-555555-5-5--------------333-11111-111111-1-11-|

2:51
F|----------------------------------------------------------|
C|----------------------------------------------------------|
G|----------------------------------------------------------|
C|-0(x14)--000-0-00-0(x14)-000-0-00-0(x14)-0--0-0(x14)-0-53-|

3:04
F|-------------------------------------------------------------|
C|-------------------------------------------------------------|
G|-1-1(x14)-------------------0-1(x10)-3(x4)-------------------|
C|------------0-0(x8)--3(x6)-----------------5-3(x8)-35-13-135-|

F|------------------------------------------------------------------|
C|------------------------------------------------------------------|
G|-0-1(x14)-------------------0-1(x10)-3(x4)------------------------|
C|------------0-0(x8)--3(x6)-----------------5-3(x8)-35-13-135-3510-|

3:31
F|----------------------------------------------------------------|
C|----------------------------------------------------------------|
G|----------------------------------------------------------------|x4
C|-0(x10)-00--0(x6)-0(x10)-00--01-1-11-0(x10)-00--0000-0(x10)-00--|

F|------------------------------------------------------------------------|
C|------------------------------------------------------------------------|
G|------------------------------------------------------------------------|x2
C|-0(x10)-00--0(x6)-0(x10)-00--01-1-11-0(x10)-00--0000-0(x10)-00--01-1-11-|


-----------------------------------------------------------------------------




Band: Falling In Reverse
Song: The Westerner

Only The Intro

e|------------------------------------|
B|------------------------------------|
G|---9-9-9-9-9-9-9-9--7-7-7-7--5-5-5-5|
D|------------------------------------|
A|------------------------------------|
E|------------------------------------|

e|------------------------------------|
B|------------------------------------|
G|---9-9-9-9-9-9-9-9--7-7-7-7----3----|
D|-------------------------------3----|
A|-------------------------------5----|
E|------------------------------------|

e|------------------------------------|
B|------------------------------------|
G|--3-3-3-3-3-3-3-3-------------------|
D|--3-3-3-3-3-3-3-3--8-8-8-8-8-8-8-8--|
A|--5-5-5-5-5-5-5-5--8-8-8-8-8-8-8-8--|
E|-------------------6-6-6-6-6-6-6-6--|

e|------------------------------------|
B|------------------------------------|
G|--3-3-3-3-3-3-3-3-------------------|
D|--3-3-3-3-3-3-3-3--8-8-8-8---8888---|
A|--5-5-5-5-5-5-5-5--8-8-8-8---8888---|
E|-------------------6-6-6-6---6666---|
Tap to rate this tab
# A B C D E F G H I J K L M N O P Q R S T U V W X Y Z