Song name
# A B C D E F G H I J K L M N O P Q R S T U V W X Y Z

Falling In Reverse - The Drug In Me Is You tab

Well,First of all.This is the Hardest solo I've ever tabbed, so it might have some 
mistakes, well that is your choise, message me if somethin is wrong to fix it.
Thanks for watch my tab :)


C|---------13h17-----12h15-----13h17-----12h15--------18b(21)-17-15~----------|
G|-------15--------13--------15--------13------/15~~~---------------18--------|
C|-----14--------12--------14--------12---------------------------------------|
F|---15-----------------------------------------------------------------------|
A|-17-------------------------------------------------------------------------|
D|----------------------------------------------------------------------------|


C|--18b(21)-17-15~-----20b(22)-------------|
G|----------------18----------19-17~-------|
C|-----------------------------------------|
F|-----------------------------------------|
A|-----------------------------------------|
D|-----------------------------------------|


C|---------13h17p13-------13h18--------------13T20p15p12-----12h15T22p15------|
G|-------15--------15---15-----15----------15-----------13--13----------------|
C|-----14------------14----------14------14---------------12------------------|
F|---15----------------------------15--15-------------------------------------|
A|-17--------------------------------17---------------------------------------|
D|----------------------------------------------------------------------------|


C|-12------12h15T20------12h15T20p13p10--------10h13T20---------10h13T22p13-----|
G|---13--13--------13--13---------------11---11---------11----11----------------|
C|-----12------------12--------------------10--------------10-------------------|
F|------------------------------------------------------------------------------|
A|------------------------------------------------------------------------------|
D|------------------------------------------------------------------------------|


C|-10------10h13T22p13p10------10h13--|
G|---11--11--------------11--11-------|
C|-----10------------------10---------|
F|------------------------------------|
A|------------------------------------|
D|------------------------------------|


C|-12p9----15p12------18p15-------21p18---------20b(23)-------------------------|
G|-----11-------14----------17-----------20-------------------------------------|
C|-------12-------15-----------18-----------21----------------------------------|
F|------------------------------------------------------------------------------|
A|------------------------------------------------------------------------------|
D|------------------------------------------------------------------------------|

Well that's all ;) Hope this helps you.

Legend

h-hammer on
p-pull off
~ let it ring a bit.
/ Slide.
Tap to rate this tab
# A B C D E F G H I J K L M N O P Q R S T U V W X Y Z