Song name
# A B C D E F G H I J K L M N O P Q R S T U V W X Y Z

Falling In Reverse - Good Girls Bad Guys tab

This is the first Falling in Reverse song i've tried to tab so its not %100

This is only the backing guitar parts as i make them out, 
Hopefully it'll give you a good basic track to work with :P.

Drop C Tuning 

  Intro
|---------------------------------------------------------------------------|
|---------------------------------------------------------------------------|
|---------------------------------------------------------------------------|
|3333333355555555-----5-7-5-7--33--55---5-7-5-7--33--66---5-7-5-7--33--55---|
|1111111133333333-----3-5-3-5--11--33---3-5-3-5--33--44---3-5-3-5--11--33---|
|------------------------------------------------33-------------------------|


|---------------------------------------------------------------------------|
|---------------------------------------------------------------------------|
|---------------------------------------------------------------------------|
|-5-7-5-7---5---------------------------------------------------------------|
|-3-5-3-5---3---------------------------------------------------------------|
|---------------------------------------------------------------------------|


  Verse
|---------------------------------------------------------------------------|
|---------------------------------------------------------------------------|
|---------------------------------------------------------------------------|
|-5-7-5-7--33--55---5-7-5-7--33-66------------------------------------------|
|-3-5-3-5--11--33---3-5-3-5--33-44---(X2)-----------------------------------|
|----------------------------33---------------------------------------------|

 Pre-Chorus (fast palm mutes)
|---------------------------------------------------------------------------|
|---------------------------------------------------------------------------|
|---------------------------------------------------------------------------|
|-7--7--3--5--7--7--3--6----------------------------------------------------|
|-5--4--1--3--5--4--1--4----------------------------------------------------|
|---------------------------------------------------------------------------|

Chorus
|---------------------------------------------------------------------------|
|---------------------------------------------------------------------------|
|-7777-3333------5555-3333333355555555-------(X2)---------------------------|
|-7777-3333-3333-5555-3333333355555555--------------------------------------|
|-5555-1111-3333-3333-1111111133333333--------------------------------------|
|-----------3333------------------------------------------------------------|


Verse
Pre-Chorus
Chorus

Little Bit behind start of solo (Palm muted)
|---------------------------------------------------------------------------|
|---------------------------------------------------------------------------|
|---------------------------------------------------------------------------|
|--10--10--7---------------Then Verse riff Twice----------------------------|
|--8---7---5-----(x2)-------------------------------------------------------|
|---------------------------------------------------------------------------|


Then Chorus till the end :)

Please Rate
Tap to rate this tab
# A B C D E F G H I J K L M N O P Q R S T U V W X Y Z