Song name
# A B C D E F G H I J K L M N O P Q R S T U V W X Y Z

Falling In Reverse - The Westerner tab

______________________________________________________________________________
-Song: The Westerner
-Album: The Drug In Me Is You
-Artist: Falling in Reverse
-Difficulty: 6/10

This is the second tab I have done, I think this is one of the best songs on the 
album and no-one had tabbed it out, so I gave it a shot, it sounds 100% but Iím 
not sure about the solo. I tried to tab the start of the solo and it doesnít sound 
right, I will try and tab the solo at a later date, sorry. Any suggestions, 
corrections or (hopefully not) complaints, you can email me at:

This_addy_sucks@hotmail.co.uk

Or just leave a comment :)

_____________________________________________________________________________


Tuning: Drop C (CGCFAD)

---Intro---

Lead:
D|-----------------------------------------------------------------------|
A|-6-6-6-6-6-6-6-6-5-5-5-5---------6-6-6-6-6-6-6-6-5-5-5-5---------------|
F|-------------------------6-6-6-6---------------------------6666--------| 
C|-----------------------------------------------------------------------|
G|-----------------------------------------------------------------------|
C|-----------------------------------------------------------------------|

Rhythm:
D|-----------------------------------------------------------------------|
A|-----------------------------------------------------------------------|
F|-----------------------------------------------------------------------|
C|-----------------------------------------------------------------------|
G|-----------------------------------------------------------------------|
C|-----------------------------------------------------------------------|

---Verse 1---

Lead/Rhythm:
D|-----------------------------------------------------------------------|
A|-----------------------------------------------------------------------|
F|-7-7-7-7-7-7-7-7-5-5-5-5-2-2-2-2-7-7-7-7-7-7-7-7-5-5-5-5---6666--------|
C|-7-7-7-7-7-7-7-7-5-5-5-5-2-2-2-2-7-7-7-7-7-7-7-7-5-5-5-5---6666--------|
G|-5-5-5-5-5-5-5-5-3-3-3-3-0-0-0-0-5-5-5-5-5-5-5-5-3-3-3-3---4444--------|
C|-----------------------------------------------------------------------|

"I tell the truth"
Lead:
D|------------------|
A|-6-6-6-6-6-6-6-6--|
F|------------------|
C|------------------|
G|------------------|
C|------------------|

Rhythm:
D|------------------|
A|------------------|
F|------------------|
C|------------------|
G|------------------|
C|------------------|

Lead:
D|-----------------------------------------------------------------------|
A|-6-6-6-6-6-6-6-6-5-5-5-5---------6-6-6-6-6-6-6-6-5-5-5-5---------------|
F|-------------------------6-6-6-6---------------------------6666--------| 
C|-----------------------------------------------------------------------|
G|-----------------------------------------------------------------------|
C|-----------------------------------------------------------------------|

Rhythm:
D|-----------------------------------------------------------------------|
A|-----------------------------------------------------------------------|
F|-----------------------------------------------------------------------|
C|-----------------------------------------------------------------------|
G|-----------------------------------------------------------------------|
C|-----------------------------------------------------------------------|

Lead/Rhythm:
D|-----------------------------------------------------------------------|
A|-----------------------------------------------------------------------|
F|-7---------------5-------2-------7---------------5-------6-------------|
C|-7---------------5-------2-------7---------------5-------6-------------|
G|-5---------------3-------0-------5---------------3-------4-------------|
C|-----------------------------------------------------------------------|

---Pre-Chorus---

Lead/Rhythm:
D|------------------|
A|------------------|
F|-7~---------------|
C|-7~---------------|
G|-5~---------------|
C|------------------|

---Chorus---

Lead:
D|-----------------------------------------------------------------------|--|
A|-----------------------------------------------------------------------|  |
F|-7---9---15-14-12-10-7---9---15-14-12-10-------------------------------|  |
C|-x---x---x--x--x--x--x---x---x--x--x--x--------------------------------|  |
G|-5---7---13-12-10-8--5---7---13-12-10-8--------------------------------|  |
C|-----------------------------------------------------------------------|  |
                                                                            |--- x2
D|------------------------|------|---------------------------------------|  |
A|------------------------|------|---------------------------------------|  |
F|-7-------10------9------|--12--|--12-x-12-x-12-x-12--------------------|  |
C|-x-------x-------x------|--x---|--x--x-x--x-x--x-x---------------------|  |
G|-5-------8-------7------|--10--|--10-x-10-x-10-x-10--------------------|  |
C|------------------------|------|---------------------------------------|__|
                                                           1st time                 2nd time
Rhythm:
D|-----------------------------------------------------------------------|--|
A|-----------------------------------------------------------------------|  |
F|-7-7-7-7-7-7-7-7-10-10-10-10-10-10-10-10-----------------5-5-5-5-------|  |
C|-7-7-7-7-7-7-7-7-10-10-10-10-10-10-10-10-5-5-5-5-5-5-5-5-5-5-5-5-------|  |
G|-5-5-5-5-5-5-5-5-8--8--8--8--8--8--8--8--5-5-5-5-5-5-5-5-3-3-3-3-------|  |
C|-----------------------------------------5-5-5-5-5-5-5-5---------------|  |
                                                                            |---x2
D|---------|-------------------------------------------------------------|  |
A|---------|-------------------------------------------------------------|  |
F|-5-5-5-5-|-5x5x5x5x----------------------------------------------------|  |
C|-5-5-5-5-|-5x5x5x5x----------------------------------------------------|  |
G|-3-3-3-3-|-3x3x3x3x----------------------------------------------------|  |
C|---------|-------------------------------------------------------------|__|
      1st time         2nd time

---Post chorus---

Lead:
D|-----------------------------------------------------------------------|
A|-----------------------------------------------------------------------|
F|-----------------------------------------------------------------------|
C|-----------------------------------------------------------------------|
G|-5-5-5-5-5-5-5-5-5-5-5-5-5\4\3\2\1\0-----------------------------------|
C|-----------------------------------------------------------------------|
Rhythm:
D|-----------------------------------------------------------------------|
A|-----------------------------------------------------------------------|
F|-7~--------------7~----------------------------------------------------|
C|-7~--------------7~----------------------------------------------------|
G|-5~--------------7~----------------------------------------------------|
C|-----------------------------------------------------------------------|

---Verse 2---

Lead:
D|-----------------------------------------------------------------------|
A|-----------------------------------------------------------------------|
F|-----------------------------------------------------------------------|
C|-----------------------------------------------------------------------|
G|-55555555555555553333333333333333555555555555555533333333--------------|
C|-----------------------------------------------------------------------|
                  These notes are all tremolo picked

Rhythm:
D|-----------------------------------------------------------------------|
A|-----------------------------------------------------------------------|
F|-7~--------------5~------2~------7~--------------5~------6x------------|
C|-7~--------------5~------2~------7~--------------5~------6x------------|
G|-5~--------------3~------0~------5~--------------5~------4x------------|
C|-----------------------------------------------------------------------|

Lead/Rhythm:
D|-----------------------------------------------------------------------|
A|-----------------------------------------------------------------------|
F|-7-7-7-7-7-7-7-7-5-5-5-5-2-2-2-2-7-7-7-7-7-7-7-7-5-5-5-5-6\5\3\2-------|
C|-7-7-7-7-7-7-7-7-5-5-5-5-2-2-2-2-7-7-7-7-7-7-7-7-5-5-5-5-6\5\3\2-------|
G|-5-5-5-5-5-5-5-5-3-3-3-3-0-0-0-0-5-5-5-5-5-5-5-5-3-3-3-3-4\3\1\0-------|
C|-----------------------------------------------------------------------|

---Chorus---

Lead:
D|-----------------------------------------------------------------------|--|
A|-----------------------------------------------------------------------|  |
F|-7---9---15-14-12-10-7---9---15-14-12-10-------------------------------|  |
C|-x---x---x--x--x--x--x---x---x--x--x--x--------------------------------|  |
G|-5---7---13-12-10-8--5---7---13-12-10-8--------------------------------|  |
C|-----------------------------------------------------------------------|  |
                                                                            |--- x2
D|------------------------|------|---------------------------------------|  |
A|------------------------|------|---------------------------------------|  |
F|-7-------10------9------|--12--|--12-x-12-x-12-x-12--------------------|  |
C|-x-------x-------x------|--x---|--x--x-x--x-x--x-x---------------------|  |
G|-5-------8-------7------|--10--|--10-x-10-x-10-x-10--------------------|  |
C|------------------------|------|---------------------------------------|__|
                                                           1st time                 2nd time
Rhythm:
D|-----------------------------------------------------------------------|--|
A|-----------------------------------------------------------------------|  |
F|-7-7-7-7-7-7-7-7-10-10-10-10-10-10-10-10-----------------5-5-5-5-------|  |
C|-7-7-7-7-7-7-7-7-10-10-10-10-10-10-10-10-5-5-5-5-5-5-5-5-5-5-5-5-------|  |
G|-5-5-5-5-5-5-5-5-8--8--8--8--8--8--8--8--5-5-5-5-5-5-5-5-3-3-3-3-------|  |
C|-----------------------------------------5-5-5-5-5-5-5-5---------------|  |
                                                                            |---x2
D|---------|-------------------------------------------------------------|  |
A|---------|-------------------------------------------------------------|  |
F|-5-5-5-5-|-5x5x5x5x----------------------------------------------------|  |
C|-5-5-5-5-|-5x5x5x5x----------------------------------------------------|  |
G|-3-3-3-3-|-3x3x3x3x----------------------------------------------------|  |
C|---------|-------------------------------------------------------------|__|
      1st time         2nd time

---Bridge---

Lead/Rhythm:
D|-----------------------------------------------------------------------|
A|-----------------------------------------------------------------------|
F|-----------------------------------------------------------------------|
C|-88888888888877777777777733333333333333--------------------------------| x2
G|-88888888888877777777777733333333333333--------------------------------|
C|-88888888888877777777777733333333333333888888777777--------------------|

Lead:
D|-----------------------------------------------------------------------|
A|-h8p6p5--h5h6-------h8p6p5--h5h6---------------------------------------|
F|--------7------x8----------7-----x6----*Fast part that I canít get*----|
C|-----------------------------------------------------------------------|
G|-----------------------------------------------------------------------|
C|-----------------------------------------------------------------------|

Rhythm:
D|-----------------------------------------------------------------------|
A|-----------------------------------------------------------------------|
F|-----------------------------------------------------------------------|
C|-88888888888877777777777733333333333333--------------------------------| x2
G|-88888888888877777777777733333333333333--------------------------------|
C|-88888888888877777777777733333333333333888888777777--------------------|

---Solo---

Lead:
D|-----------------------------------19p18-19p18-19p18b------------------|
A|-19b-19b-17-18-17-18-17-18-17b-17b-------------------------------------|
F|-----------------------------------------------------------------------|
C|-----------------------------------------------------------------------|
G|-----------------------------------------------------------------------|
C|-----------------------------------------------------------------------|

Unsure on the rest of the solo, will try to tab it out but it might take a long time!

Rhythm:
D|-----------------------------------------------------------------------|
A|-----------------------------------------------------------------------|
F|-----------------------------------------------------------------------|
C|-3---6---3---6---3---6---3---6---3----6----3----6----3----6----3----6--|
G|-3---6---3---6---3---6---3---6---3----6----3----6----3----6----3----6--|
C|-3---6---3---6---3---6---3---6---3----6----3----6----3----6----3----6--|

D|-----------------------------------------------------------------------|
A|-----------------------------------------------------------------------|
F|-----------------------------------------------------------------------|
C|-3---6---3---6---------------------------------------------------------|
G|-3---6---3---6---------------------------------------------------------|
C|-3---6---3---6---------------------------------------------------------|

---Final chorus---

Lead:
D|-----------------------------------------------------------------------|--|
A|-----------------------------------------------------------------------|  |
F|-7~------15-14-12-10-7---9---15-14-12-10-------------------------------|  |
C|-x-------x--x--x--x--x---x---x--x--x--x--------------------------------|  |
G|-5~------13-12-10-8--5---7---13-12-10-8--------------------------------|  |
C|-----------------------------------------------------------------------|  |
                                                                            |--- x2
D|-----------------------------------------------------------------------|  |
A|-----------------------------------------------------------------------|  |
F|-7-------10------9--------12-------------------------------------------|  |
C|-x-------x-------x--------x--------------------------------------------|  |
G|-5-------8-------7--------10-------------------------------------------|  |
C|-----------------------------------------------------------------------|__|
                                                           
Rhythm:
D|-----------------------------------------------------------------------|--|
A|-----------------------------------------------------------------------|  |
F|-7~--------------10-10-10-10-10-10-10-10-----------------5-5-5-5-------|  |
C|-7~--------------10-10-10-10-10-10-10-10-5-5-5-5-8-8-8-8-5-5-5-5-------|  |
G|-5~--------------8--8--8--8--8--8--8--8--5-5-5-5-8-8-8-8-3-3-3-3-------|  |
C|-----------------------------------------5-5-5-5-8-8-8-8---------------|  |
                                                                            |---x2
D|-----------------------------------------------------------------------|  |
A|-----------------------------------------------------------------------|  |
F|-7-7-7-7---------------------------------------------------------------|  |
C|-7-7-7-7---------------------------------------------------------------|  |
G|-5-5-5-5---------------------------------------------------------------|  |
C|-----------------------------------------------------------------------|__|
    
---Outro---

Lead:
D|-----------------------------------------------------------------------|
A|-----------------------------------------------------------------------|
F|-7~--------------------------------------------------------------------|
C|-x---------------------------------------------------------------------|
G|-5~--------------------------------------------------------------------|
C|-----------------------------------------------------------------------|

Rhythm:
D|-----------------------------------------------------------------------|
A|-----------------------------------------------------------------------|
F|-7---------------------------------------------------------------------|
C|-7---------------------------------------------------------------------|
G|-5---------------------------------------------------------------------|
C|-----------------------------------------------------------------------|

************************************

| /   slide up
| \   slide down
| h   hammer-on
| p   pull-off
| ~   vibrato
| +   harmonic
| x   Mute note
| b   Bend
| pb  Pre-bend
| br  Bend release
| pbr Pre-bend release
| brb Bend release bend

************************************
Tap to rate this tab
# A B C D E F G H I J K L M N O P Q R S T U V W X Y Z