Song name
# A B C D E F G H I J K L M N O P Q R S T U V W X Y Z

Falling In Reverse - Sink Or Swim tab

                       (Guitar 1)
D|--------------------------------------------------------------------|
A|--------------------------------------------------------------------|
F|--------------------------------------------------------------------|
C|--------------------------------------------------------------------|
G|-0-0000000-0000008-8888888-8888885-5555555-5555550-0000000-000000---|
C|-0-0000000-0000008-8888888-8888885-5555555-5555550-0000000-000000---|

(Repeat above as needed)

                      (Guitar 2)
D|-------------------------------------------------------------------|
A|-------------------------------------------------------------------|
F|-------------------------------------------------------------------|
C|-------------------------------------------------------------------|
G|-5-8-7-8-5-8-7-8-5-8-7-8-5-8-7-8-5-8-7-8-5-8-7-8-5-8-7-8-5-8-7-8---|
C|-------------------------------------------------------------------|

D|-------------------------------------------------------------------|
A|-------------------------------------------------------------------|
F|-------------------------------------------------------------------|
C|-5-8-7-8-5-8-7-8-5-8-7-8-5-8-7-8-5-8-7-8-5-8-7-8-5-8-7-8-5-8-7-8---|
G|-------------------------------------------------------------------|
C|-------------------------------------------------------------------|

D|-------------------------------------------------------------------|
A|-------------------------------------------------------------------|
F|-------------------------------------------------------------------|
C|-------------------------------------------------------------------|
G|-7-10-8-10-7-10-8-10-7-10-8-10-7-10-8-10-7-10-8-10-7-10-8-10-------|
C|-------------------------------------------------------------------|

D|-------------------------------------------------------------------|
A|-------------------------------------------------------------------|
F|-------------------------------------------------------------------|
C|-------------------------------------------------------------------|
G|-7-10-8-10-7-10-8-10-----------------------------------------------|
C|-------------------------------------------------------------------|

Ummmmmm... Right here it works on the bottom 3 strings around 13, 15, and 17..

                     "Brace for impact!"
                         (Guitar 1)
D|-------------------------------------------------------------------|
A|-------------------------------------------------------------------|
F|-------------------6---9-------------------------------------------|
C|-------------------x---x-------------------------------------------|
G|-000000000-0-000-0-4-0-7-555555555-5-555-55555555------------------|
C|-000000000-0-000-0---0---555555555-5-555-55555555------------------|

D|-------------------------------------------------------------------|
A|-------------------------------------------------------------------|
F|-------------------6---9-------------------------------------------|
C|-------------------x---x-------------------------------------------|
G|-555555555-5-555-5-4-5-7-------------------------------------------|
C|-555555555-5-555-5---5---------------------------------------------|
*Im not so sure about the sweeping or whatever guitar 2 does here.... I'll come back to it.
(Chorus, Both Guitars)
D|-------------------------------------------------------------------|
A|-------------------------------------------------------------------|
F|-12-14-14-14-12-12-12-12-10-10-10-10-10-10-10-12-14-14-14-12-12-12-|
C|-x--x--x--x--x--x--x--x--x--x--x--x--x--x--x--x--x--x--x--x--x--x--|
G|-10-12-12-12-10-10-10-10-8--8--8--8--8--8--8--10-12-12-12-10-10-10-|
C|-------------------------------------------------------------------|

D|-------------------------------------------------------------------|
A|-------------------------------------------------------------------|
F|-------------------------------------------------------------------|
C|-12-10-10-10-10-10-10-10-7--10-10-10-10-9--9--9--------------------|
G|-x--x--x--x--x--x--x--x--x--x--x--x--x--x--x--x--------------------|
C|-10-8--8--8--8--8--8--8--5--8--8--8--8--7--7--7--------------------|

D|-------------------------------------------------------------------|
A|-------------------------------------------------------------------|
F|-9-10-10-10-10-10-10-10-12-12-12-12-12-12-12-12--------------------|
C|-x-x--x--x--x--x--x--x--x--x--x--x--x--x--x--x---------------------|
G|-7-8--8--8--8--8--8--8--10-10-10-10-10-10-10-10--------------------|
C|-------------------------------------------------------------------|

D|-------------------------------------------------------------------|
A|-------------------------------------------------------------------|
F|-15-15-15-15-15-15-15-15-------------------------------------------|
C|-x--x--x--x--x--x--x--x--------------------------------------------|
G|-13-13-13-13-13-13-13-13-------------000000------------------------|
C|-------------------------------------000000------------------------|
(Verse 2 is the same as the first verse except there is no sweeping part)

(Then, repeat the chorus.)

(After the chorus, then he starts singing "I bid farewell...." When the guitar starts, 
you will play open notes, you can find out the strum pattern, it's not that hard.)

THEN, he'll say "I know someday you'll get what you deserve" When he screams "And after 
all!!!" , A guitar comes in the background doing something like this.... I think its 
accurate. Repeat until chorus starts again.

                    (Guitar 2)
D|-13--13--13--13--13--13--13----------------------------------------|
A|---17--17--17--17--17--17------------------------------------------|
F|-------------------------------------------------------------------|
C|-------------------------------------------------------------------|
G|-------------------------------------------------------------------|
C|-------------------------------------------------------------------|

You know how the chorus goes here, so have fun!!! oh yeah last note is...
D|---|
A|---|
F|---|
C|-0-|
G|-0-|
C|-0-|
Tap to rate this tab
# A B C D E F G H I J K L M N O P Q R S T U V W X Y Z