Song name
# A B C D E F G H I J K L M N O P Q R S T U V W X Y Z

Falling In Reverse - Im Not A Vampire tab

Im Not A Vampire by Falling In Reverse

 

Lead guitar part 1 (For Intro):

e|--13-12-10----15-13-12----10-8-10----------------------------------------| 
B|-------------------------------------14-15-17----------------------------|   
G|-------------------------------------------------------------------------|
D|-------------------------------------------------------------------------|
A|-------------------------------------------------------------------------|
E|-------------------------------------------------------------------------|

e|-12--10-------------------------------------------------------------------|
B|-15b-13b----13-11-10-8-------10p8-10--10p8-10--10p8-10--10p8-10rb----8-7--|
G|---------------------10b-------------------------------------------------9|
D|--------------------------------------------------------------------------|
A|--------------------------------------------------------------------------|
E|--------------------------------------------------------------------------|




Rhythm guitar part 1 (For Intro and Verses):

e|-------------------------------------------------------------------------|
B|-------------------------------------------------------------------------|
G|-------------------------------------------------------------------------|
D|--4-4---4-4-4---4-4-4---4-4-4---4-9-9---9-9-9---9-9-9---9-9-9------------|
A|--4-4---4-4-4---4-4-4---4-4-4---4-9-9---9-9-9---9-9-9---9-9-9------------|
E|--2-2---2-2-2---2-2-2---2-2-2---2-7-7---7-7-7---7-7-7---7-7-7------------|

e|--------------------------------------------------------------------------|
B|--------------------------------------------------------------------------|
G|--------------------------------------------------------------------------|
D|--91212--121212--121212--12-12-12--12-11-11--11-11-11--11-11-11--11-11-11-|
A|--91212--121212--121212--12-12-12--12-11-11--11-11-11--11-11-11--11-11-11-|
E|--71010--101010--101010--10-10-10--10-9--9---9--9--9---9--9--9---9--9--9--|




Bass guitar part 1 (For Intro and Verses):

e|-------------------------------------------------------------------------|
B|-------------------------------------------------------------------------|
G|-------------------------------------------------------------------------|
D|-------------------------------------------------------------------------|
A|-------------------------------------------------------------------------|
E|--2-2---2-2-2---2-2-2---2-2-2---2-7-7---7-7-7---7-7-7---7-7-7------------|

e|--------------------------------------------------------------------------|
B|--------------------------------------------------------------------------|
G|--------------------------------------------------------------------------|
D|--------------------------------------------------------------------------|
A|--------------------------------------------------------------------------|
E|7-10-10---10-10-10---10-10-10---10-10-10---10-9-9---9-9-9---9-9-9---9-9-9-|




Rhythm guitar part 2 (For Pre-Chorus):

e|-------------------------------------------------------------------------|
B|-------------------------------------------------------------------------|
G|--5-5---7-7-------------------5-5---7-7---4-4---5-5-5-5-7-7-7-7----------|
D|--5-5---7-7---4-4---6-6-7-7---5-5---7-7---4-4---5-5-5-5-7-7-7-7----------|
A|--3-3---5-5---4-4---6-6-7-7---3-3---5-5---2-2---3-3-3-3-5-5-5-5----------|
E|--------------2-2---4-4-5-5----------------------------------------------|




Bass guitar part 2 (For Pre-Chorus):

e|-------------------------------------------------------------------------|
B|-------------------------------------------------------------------------|
G|-------------------------------------------------------------------------|
D|-------------------------------------------------------------------------|
A|--3-3---5-5-------------------3-3---5-5---2-2---3-3-3-3-5-5-5-5----------|
E|--------------2-2---4-4-5-5----------------------------------------------|





Lead guitar part 2 (For Chorus):

e|--13-12-10----15-13-12----10-8-10----------------------------------------| 
B|-------------------------------------14-15-17----------------------------|   
G|-------------------------------------------------------------------------|
D|-------------------------------------------------------------------------|
A|-------------------------------------------------------------------------|
E|-------------------------------------------------------------------------|




Rhythm guitar part 3 (For Chorus):

e|-------------------------------------------------------------------------|
B|-------------------------------------------------------------------------|
G|-------------------------------------------------------------------------|
D|--4-4-4-4-4-4-4-4-4-4-4-4-4-4-4-4-9-9-9-9-9-9-9-9-9-9-9-9-9-9-9-9--------|
A|--4-4-4-4-4-4-4-4-4-4-4-4-4-4-4-4-9-9-9-9-9-9-9-9-9-9-9-9-9-9-9-9--------|
E|--2-2-2-2-2-2-2-2-2-2-2-2-2-2-2-2-7-7-7-7-7-7-7-7-7-7-7-7-7-7-7-7--------|

e|--------------------------------------------------|
B|--------------------------------------------------|
G|--------------------------------------------------|
D|--12-12-12-12-12-12-12-12-12-12-12-12-12-12-12-12-|
A|--12-12-12-12-12-12-12-12-12-12-12-12-12-12-12-12-|
E|--10-10-10-10-10-10-10-10-10-10-10-10-10-10-10-10-|

e|-------------------------------------------------|
B|-------------------------------------------------|
G|-------------------------------------------------|
D|--11-11-11-11-11-11-11-11-11-11-11-11-11-11-11-11|
A|--11-11-11-11-11-11-11-11-11-11-11-11-11-11-11-11|
E|--9--9--9--9--9--9--9--9--9--9--9--9--9--9--9--9-|





Bass guitar part 3 (For Chorus):

e|-------------------------------------------------------------------------|
B|-------------------------------------------------------------------------|
G|-------------------------------------------------------------------------|
D|-------------------------------------------------------------------------|
A|-------------------------------------------------------------------------|
E|--2-2-2-2-2-2-2-2-2-2-2-2-2-2-2-2-7-7-7-7-7-7-7-7-7-7-7-7-7-7-7-7--------|

e|--------------------------------------------------|
B|--------------------------------------------------|
G|--------------------------------------------------|
D|--------------------------------------------------|
A|--------------------------------------------------|
E|--10-10-10-10-10-10-10-10-10-10-10-10-10-10-10-10-|

e|-------------------------------------------------|
B|-------------------------------------------------|
G|-------------------------------------------------|
D|-------------------------------------------------|
A|-------------------------------------------------|
E|--9--9--9--9--9--9--9--9--9--9--9--9--9--9--9--9-|






Lead guitar part 3 (For Solo):

e|-------------------|------------------|--------------------------------|
B|-------------------|------------------|--10--10--8--10--6--10--5--10---|
G|--7--10--9--10---x4|--6--9--7--9----x2|--------------------------------|
D|-------------------|------------------|--------------------------------|
A|-------------------|------------------|--------------------------------|
D|-------------------|------------------|--------------------------------|

e|-------------------|--------------9--12--9--------------------------------|
B|--6--10--8--10-----|----------11--------------11--------------11--11--10--|
G|-----------------x4|--9--12----------------------12--9--12--------------12|
D|-------------------|------------------------------------------------------|
A|-------------------|------------------------------------------------------|
D|-------------------|------------------------------------------------------|

e|------------------|-------------------------------------|-----------------|
B|------------------|-------------------------------------|-----------------|
G|-7--10--9--10---x4|-7--9--10--6--7--9--9--10--12--14----|-6--9--7--9----x4|
D|------------------|-------------------------------------|-----------------|
A|------------------|-------------------------------------|-----------------|
D|------------------|-------------------------------------|-----------------|

e|----------------------------------------|-----------------|
B|----------------------------------------|--6--10--8--10---|
G|--6--7--9--7--9--10--9--10--12--14------|-----------------|
D|----------------------------------------|-----------------|
A|----------------------------------------|-----------------|
E|----------------------------------------|-----------------|

e|--3-----------3--6--3-----------3--6/9--6--|
B|-----5-----5-----------5-----5-------------|
G|--------6-----------------6----------------|
D|-------------------------------------------|
A|-------------------------------------------|
E|-------------------------------------------|

e|---------6/12--9-----------9-12-16-13----13-------------------------------|
B|-8---8-----------11----11-------------15--------15----15------------------|
G|---9----------------12----------------------------16-------16-13-16-13----|
D|------------------------------------------------------------------------15|
A|--------------------------------------------------------------------------|
E|--------------------------------------------------------------------------|

e|-----------------13h16p13------13h16p13-------------------------|
B|-------------15------------15------------15---------------------|
G|------13h16----------------------------------16p13--------------|
D|--15------------------------------------------------15------13~~|
A|--------------------------------------------------------19------|
D|----------------------------------------------------------------|




Rhythm guitar part 4 (For Solo):

e|-------------------------------------------------------------------------|
B|-------------------------------------------------------------------------|
G|--------------------------------------5-3-2------------------------------|
D|---4---4-2---9-7-5-4--5---10-9----2-5-5-3-2-5-2--------------------------|
A|---4---4-2---9-7-5-4--5---10-9----2-5-3-1-0-5-2--------------------------|
E|---2---2-2---7-5-3-2--3---8--7----2-5-------5-2--------------------------|

e|-------------------------------------------------------------------------|
B|-------------------------------------------------------------------------|
G|-------------------------------------------------------------------------|
D|---4---4-2---9-7-5-4--5---10-9----9-9-9-10---9-9-9-7---------------------|
A|---4---4-2---9-7-5-4--5---10-9----9-9-9-10---9-9-9-7---------------------|
E|---2---2-2---7-5-3-2--3---8--7----7-7-7--8---7-7-7-5---------------------|



Bass guitar part 4 (For Solo):

e|-------------------------------------------------------------------------|
B|-------------------------------------------------------------------------|
G|-------------------------------------------------------------------------|
D|-------------------------------------------------------------------------|
A|--------------------------------------3-1-0------------------------------|
E|---2---2-0---7-5-3-2--3---8--7----2-5-------5-2--------------------------|

e|-------------------------------------------------------------------------|
B|-------------------------------------------------------------------------|
G|-------------------------------------------------------------------------|
D|-------------------------------------------------------------------------|
A|-------------------------------------------------------------------------|
E|---2---2-2---7-5-3-2--3---8--7----7-7-7--8---7-7-7-5---------------------|




Rhythm guitar part 5 (For Bridge):

e|------------------------------------------------------------------------|
B|------------------------------------------------------------------------|
G|------------------------------------------------------------------------|
D|-44---x--xx--xx----44---x--xx--xx-----44---x--xx--xx------77---x--xx--xx|
A|-44---x--xx--xx----44---x--xx--xx-----44---x--xx--xx------77---x--xx--xx|
E|-22---x--xx--xx----22---x--xx--xx-----22---x--xx--xx------55---x--xx--xx|

e|-----------------------------------------------------------------|
B|-----------------------------------------------------------------|
G|-----------------------------------------------------------------|
D|-88--x--xx--xx----77-x--xx--xx-----------------------------------|
A|-88--x--xx--xx----77-x--xx--xx----333111000-----333111000--------|
E|-88--x--xx--xx----77-x--xx--xx--------------555-----------555----|




Bass guitar part 5 (For Bridge):

e|-------------------------------------------------------------------------|
B|-------------------------------------------------------------------------|
G|-------------------------------------------------------------------------|
D|-------------------------------------------------------------------------|
A|--------------------------3-3-3-1-1-1-0-0-0-------3-3-3-1-1-1-0-0-0------|
E|22--22--22--55--88--77----------------------5-5-5-------------------5-5-5|






Im Not A Vampire arrangement:

Intro
Verse
Pre-Chorus
Chorus 
Verse
Pre-Chorus
Chorus
Solo
Bridge
Chorus
Tap to rate this tab
# A B C D E F G H I J K L M N O P Q R S T U V W X Y Z