Song name
# A B C D E F G H I J K L M N O P Q R S T U V W X Y Z

Falling In Reverse - Tragic Magic tab

FALLING IN REVERSE
TRAGIC MAGIC
DROP C
Other tab is wrong/confusing as fuck in places.
don't know why its rated 5


INTRO/CHORUS 0:03
GTR1                                                                      |
D|--------||--------------------|-----------------------|-----------------|
A|-x------||--------------------|-----------------------|-----------------|
F|-x-10\\-||--14~-10~-5~--10~14~|-15~-12~-12~--15~14~15~|-12~-9~-6~--7~9~-|
C|-x-10\\-||--x---x---x---x---x-|-x---x---x----x--x--x--|-x---x--x---x-x--|
G|-x--8\\-||--12~-8~--3~--8~-12~|-13~-10~-10~--13~12~13~|-10~-7~-4~--5~7~-|
C|--------||--------------------|-----------------------|-----------------|

               x2  (second ending)
|---------------||-----------------|
|---------------||-----------------|
|-10~-5~--14~~--||-----------------|
|-x---x---x-----||---7-7----10-10--| 
|-8~--3~--12~~--||-x-7-7--x-10-10--|
|---------------||-x-7-7--x-10-10--|
||
GTR2                                                                      |
D|--------||--------------------|-----------------------|-----------------|
A|--------||--------------------|-----------------------|-----------------|
F|--------||--------------------|-----------------------|-----------------|
C|--------||--3-3-3-3-3-3-3-3---|----8-8-8-8-8-8-8-8----|-5-5-5-5-5-5-5-5-|
G|--------||--3-3-3-3-3-3-3-3---|----8-8-8-8-8-8-8-8----|-5-5-5-5-4-4-4-4-|
C|--------||--3-3-3-3-3-3-3-3---|----8-8-8-8-8-8-8-8----|-5-5-5-5-5-5-5-5-|
                                                                          |

                       x2 
|-----------------------| (second
|-----------------------| ending rule
|------------------5-5~-| for GTR2
|-3-3-3-3-3----3---5-5~-| aswell)
|-3-3-3-3-3-33-3-3-3-3~-|
|-3-3-3-3-3-33-3-3------|
            **   *




VERSE 0:29 (GTR2 DOES CHORDS IN BRACKETS)
D|----------------------------------------------------------------|
A|----------------------------------------------------------------|
F|----------------------------------------------------------------|
C|-0~~(12)~----3~~(15)~-------8~~-------7~~---11-11-11--11-11-11--|
G|-0~~(12)~----3~~(15)~-------8~~-------7~~---11-11-11--11-11-11--|
C|-0~~(12)~----3~~(15)~-------8~~-------7~~---11-11-11--11-11-11--|..
||
D|---------|---------|---------|-----------------------------------------|----------------|
A|---X4----|---X4----|---X4----|-----------------------------------------|----------------|
F|---------|---------|---------|-----------------------------------------|----------------|
C|---------|---------|---------|-----------------------------------------|--8~--XXXX------|
G|-0-0-0-0-|-3-3-3-3-|-8-8-8-8-|-7-7-7-7-7-7-7-7-15-15-15-15-14-14-14-14-|--8~--XXXX------|
C|-0-0-0-0-|-3-3-3-3-|-8-8-8-8-|-7-7-7-7-7-7-7-7-15-15-15-15-14-14-14-14-|--8~--XXXX------|
   * * * *   * * * *   * * * *   * * * * * * * * *  *  *  *  *  *



                              REPEAT CHORUS 0:56



"La La Lalala"
D|------------------------------------------------------------------------|
A|------------------------------------------------------------------------|
F|-------------------------------------------------------------------5-5~-|
C|--3-3-3-3-3-3-3-3-8-8-8-8-8-8-8-8-5-5-5-5-5-5-5-5-3-3-3-3-7----7---5-5~-|
G|--3-3-3-3-3-3-3-3-8-8-8-8-8-8-8-8-5-5-5-5-4-4-4-4-3-3-3-3-7-77-7-7-3-3~-|
C|--3-3-3-3-3-3-3-3-8-8-8-8-8-8-8-8-5-5-5-5-5-5-5-5-3-3-3-3-7-77-7-7------|
                                                              **   *



VERSE 2 1:33
D|---------------------------------------------------------------------|
A|---------------------------------------------------------------------|
F|-------------------------------------------------------HARMONICS-----|
C|-0~~(12)~----3~~(15)~-------8~~-------7~~---11-11-11--1/2/3/4/5/6/7--|
G|-0~~(12)~----3~~(15)~-------8~~-------7~~---11-11-11-----------------|
C|-0~~(12)~----3~~(15)~-------8~~-------7~~---11-11-11-----------------|..
GTR1
D|---------|---------|----------|--------------------------------------------------------------|
A|-10--8-10|-10--8-10|-11--10-11|-13---11--13--------------------------------------------------|
F|-10--9-10|-10--9-10|-10--10-10|-12---10--12-------------------------------------HARMONICS----|
C|---------|---------|----------|------------------------------------------------7\6\5\4\3\2\1-|
G|----X2---|----X2---|----X2----|--------------------------------------------------------------|
C|---------|---------|----------|--------------------------------------------------------------|
GTR2
D|---------|---------|----------|-----------------------------------------|--------------------|
A|---X4----|---X4----|---X4-----|-----------------------------------------|--------------------|
F|---------|---------|----------|-----------------------------------------|--------------------|
C|---------|---------|----------|-----------------------------------------|--8~--XXXX----------|
G|-0-0-0-0-|-3-3-3-3-|-8-8-8-8--|-7-7-7-7-7-7-7-7-15-15-15-15-14-14-14-14-|--8~--XXXX----------|
C|-0-0-0-0-|-3-3-3-3-|-8-8-8-8--|-7-7-7-7-7-7-7-7-15-15-15-15-14-14-14-14-|--8~--XXXX----------|
   * * * *   * * * *   * * * *   * * * * * * * *  *  *  *  *  *  *




                        REPEAT CHORUS 2:00



"La La Lalala" 2:25
D|-------------------|------------------|------------------|-----------------------------------|
A|-------------------|------------------|------------------|------Dont-play-2nd-time-through---|
F|-------------------|------------------|------------------|----------------↓------------------|
C|--3-3--------------|-8-8--------------|-5-5--------------|-3-3-------------------------------| x2
G|--3-3-3-3-3-3-3-3--|-8-8-8-8-8-8-8-8--|-5-5-4-4-4-4-4-4--|-3-3-(3-3-3-3-3-3-3-3-3-3)--15\\\--|
C|--3-3-3-3-3-3-3-3..|-8-8-8-8-8-8-8-8..|-5-5-5-5-5-5-5-5..|-3-3-(3-3-3-3-3-3-3-3-3-3)--15\\\--|
        * * * * * *        * * * * * *        * * * * * *         * * * * * * * * * *




BREAKDOWN 2:50
D|--------------------------------------------------------------------------------------------|
A|--------------------------------------------------------------------------------------------|
F|--------------------------------------------------------------------------------------------|
C|--------------------------------------------------------------------------------------0~----|
G|--3---3333333-3--33-33--8---8888888-8--88-88--5-55--5555554-4--44-44--3---3333333-3--x0~----|
C|--3---3333333-3--33-33--8---8888888-8--88-88--5-55--5555555-5--55-55--3---3333333-3--x0~----|
    *   ******* *  ** **  *   ******* *  ** **  * **  ******* *  ** **  *   ******* *


D|--------------------------------------------------------------------------------------------|
A|--------------------------------------------------------------------------------------------|
F|--------------------------------------------------------------------------------------------|
C|--------------------------------------------------------------------------------------0~----|
G|--3~--3333333-3~-33~33~-8~--8888888-8~-88~88~-5~55~-5555554-4--44-44--3~--3333333-3--x0~----|
C|--3~--3333333-3~-33~33~-8~--8888888-8~-88~88~-5~55~-5555555-5--55-55--3~--3333333-3--x0~----|
                                                            * *  ** **            * *
PLAY UNTIL FADE OUT..


ALSO IN THE BACKGROUND IS THE OCTAVES OF GTR1 FROM THE CHORUS/INTRO. 
THAT TOO; IS PLAYED UNTIL FADE OUT.


Done. please rate and comment! hell more confident with this one over the other
Tap to rate this tab
 
# A B C D E F G H I J K L M N O P Q R S T U V W X Y Z