Song name
# A B C D E F G H I J K L M N O P Q R S T U V W X Y Z

Falling In Reverse - Pick Up The Phone tab

ASCENT                                                           [FAST]     [HELL SUPER SHIT FAST]
D|----------------------------------------15-14h17h19-15-14-15-19p17p15p14-19p17p15p14-19p17p15p14-|
A|----------------------------------17-12----------------------------------------------------------|
F|----------------------------16-12----------------------------------------------------------------|
C|---------------14-9--17-14-----------------------------------------------------------------------|
G|---10-7--14-10-----------------------------------------------------------------------------------|
C|-------------------------------------------------------------------------------------------------|

DESCENT [ALL FAST]                                                        [SLOWER]
19p17p13-15p14p12-----------------------------------------------|-22----22----22----22----22----22---|
-------------------17p15p13-13p12p11----------------------------|----20----19------------------------|
-------------------------------------12p11p9--------------------|----------------21----19----18----16|
---------------------------------------------13p11p10p12p10-9v~-|------------------------------------|
----------------------------------------------------------------|------------------------------------|
----------------------------------------------------------------|------------------------------------|


D|--------/12-10-----/12-------|--------------15h19p15----19p17p15-|
A|---------------12v------10v~-|-----------------------------------|
F|-13brb~~---------------------|--------16h17----------17----------|
C|-----------------------------|-----------------------------------|
G|-----------------------------|--15h19----------------------------|
C|-----------------------------|-----------------------------------|

     [FAST]  [FAST]    [FAST]  [DAMN FAST]
D|--14p12p10-------------------------------------------------|
A|-----------15p13p12--12p10p8-10p9p7h10p8p7--5v~~-----------|
F|~--------------------------------------------------3*~-----|
C|-----------------------------------------------------------|
G|-----------------------------------------------------------|
C|-----------------------------------------------------------|
Tap to rate this tab
 
# A B C D E F G H I J K L M N O P Q R S T U V W X Y Z