Song name
# A B C D E F G H I J K L M N O P Q R S T U V W X Y Z

Falling In Reverse - Good Girls Bad Guys tab

-----------------------------------------------------------------------------
                  GOOD GIRLS BAD GUYS - Falling in Reverse
-----------------------------------------------------------------------------
Tabbed by: 'lil pig (aka Tidelwave)

tuning:Drop C (CGCFAD)

(2:00)
D|---17--17br--15--17--17br-----------------13-17-15-13-15----------------|
A|--------------------------18~----------15----------------18-17-15-17----|
F|------------------------------------14----------------------------------|
C|---------------------------------15-------------------------------------|
G|------------------------------------------------------------------------|
C|------------------------------------------------------------------------|

(2:06)
D|------------------------------------------------------13----|
A|-17-15-14------------------------------------13-------------|
F|----------17-15-14-15-17-15-14------10----------------------|
C|-------------------------------15~-----10-10----10-10-------|
G|------------------------------------------------------------|
C|------------------------------------------------------------|

(2:08)
D|---22-------20-------21~--20-18-17-18-17----17-------------------|
A|------18-------18------------------------20----20-18-20-18-17----|
F|---------17-------17---------------------------------------------|
C|-----------------------------------------------------------------|
G|-----------------------------------------------------------------|
C|-----------------------------------------------------------------|

(2:12)
D|------------------------------17----17-22~----|
A|------------15----15-18-15-18----15-----------|
F|---------14----14-----------------------------|
C|---12-15--------------------------------------|
G|----------------------------------------------|
C|----------------------------------------------|

(2:14) (trem picking)
D|---------------------------------------------------------------------|
A|---------------------------------------------------------------------|
F|------------12-14-15----------12-14-15----------14-15-17-14-15-17----|
C|---12-14-15----------12-14-15----------14-15-17----------------------|
G|---------------------------------------------------------------------|
C|---------------------------------------------------------------------|

D|-----------------------------------15-17-18----|
A|--------------------------15-17-18-------------|
F|------------15-17-19-19+~----------------------|
C|---15-17-19------------------------------------|
G|-----------------------------------------------|
C|-----------------------------------------------|

D|--20-18-17-------------------------------17-22-17----17-21br--------|
A|-----------20-18-17-------------------19----------19---------18~----|
F|--------------------19-17-15-17-19-18-------------------------------|
C|--------------------------------------------------------------------|
G|--------------------------------------------------------------------|
C|--------------------------------------------------------------------|

(2:20)
D|-------------------------------------------|
A|---18-17-18-17-------------15--------------|
F|---------------14-12----12----14~-12-14----|
C|---------------------15--------------------|
G|-------------------------------------------|
C|-------------------------------------------|

(2:23) (tapping)
D|---22-17-13-------------------------------|
A|------------22-18-15----------------------|
F|---------------------21-14-12-19-14-12----|
C|------------------------------------------|
G|------------------------------------------|
C|------------------------------------------|

(2:25)
D|----------------------------------------------------------------|
A|--15-17-18-17-15------------------------------------------------|
F|-----------------18-17-15---------------------------------------|
C|--------------------------17-15-14-15-17-15-14------------------|
G|-----------------------------------------------17-15-14---------|
C|--------------------------------------------------------15~\----|

solo ends at (2:27) 2nd tab ever uploaded, there are a couple of
mistakes but they aren't noticeable at the speed you will be playing at.

************************************

| /   slide up
| \   slide down
| h   hammer-on
| p   pull-off
| ~   vibrato
| +   harmonic
| x   Mute note
| b   Bend
| pb  Pre-bend
| br  Bend release
| pbr Pre-bend release
| brb Bend release bend

************************************
Tap to rate this tab
# A B C D E F G H I J K L M N O P Q R S T U V W X Y Z