Song name
# A B C D E F G H I J K L M N O P Q R S T U V W X Y Z

Falling In Reverse - Fashionably Late tab

05/27/13
Falling In Reverse - Fashionably Late
Tabbed by: Devon Horton[Non-Fiction(UG)/iIDevonIi(Youtube)]
Tuning: Drop C[C G C F A D]

All copyrights (©) go to ©Falling In Reverse, ©WMG and ©Epitaph Records!

You can easily hear the stumming pattern in the song so I didn't add it
in the tabs.


 -INTRO-
d---------------------------------------------------------|
a---------------------------------------------------------|
F---------------------------------------------------------|
C-77--------77---------------77---------------------------|
G-55--------55---------------55---------------------------|
C---------------------------------------------------------|

0:19 - 0:29
[Derek]
d---------------------------------------------------------|
a---------------------------------------------------------|
F-7-9-10--7-9-10--7-9-10-7--7-9-10-7-12-10-9-10---7-9-10--|
C---------------------------------------------------------|
G---------------------------------------------------------|
C---------------------------------------------------------|

d---------------------------------------------------------|
a---------------------------------------------------------|
F-7-9-10--7-9-10-7-12-12-12-10-10-------------------------|
C---------------------------------------------------------|
G---------------------------------------------------------|
C---------------------------------------------------------| x 2


[Jacky]

d---------------------------------------------------------|
a-3-5-6--3-5-6--3-5-6-3--3-5-6-3-8-6-5-6--3-5-6--3-5-6----|
F---------------------------------------------------------|
C---------------------------------------------------------|
G---------------------------------------------------------|
C---------------------------------------------------------|

d---------------------------------------------------------|
a-3-5-6-3--3-5-6-3-8-8-8-6-6------------------------------|
F---------------------------------------------------------|
C---------------------------------------------------------|
G---------------------------------------------------------|
C---------------------------------------------------------| x 2

Verse
d---------------------------------------------------------|
a---------------------------------------------------------|
F---------------------------------------------------------|
C-77-77--22-22--33-33--33-22------------------------------|
G-55-55--00-00--11-11--33-22------------------------------|
C----------------------33-22------------------------------|

[Derek]
d---------------------------------------------------------|
a---------------------------------------------------------|
F---------------------------------------------------------|
C-77-77--22-22--33-33-55-55-------------------------------|
G-55-55--00-00--11-11-33-33-------------------------------|
C---------------------------------------------------------|

[Jacky] Palm mute this part
d---------------------------------------------------------|
a-10--10--10--10---5-5-5-5--6-6-6-6---6-6-6-6-------------|
F---7---7---7---7---2-2-2-2--3-3-3-3---5-5-5--------------|
C---------------------------------------------------------|
G---------------------------------------------------------|
C---------------------------------------------------------|






PRE-CHORUS
d---------------------------------------------------------|
a---------------------------------------------------------|
F---------------------------------------------------------|
C-77----33--5555-33----33--5555---------------------------|
G-55----33--3333-11----33--3333---------------------------|
C-------33-------------33---------------------------------|


Chorus

d---------------------------------------------------------|
a---------------------------------------------------------|
F---------------------------------------------------------|
C-77--33-55--3-2------------------------------------------|
G-55--11-33--3-2------------------------------------------|
C------------3-2------------------------------------------| x 3


d---------------------------------------------------------|
a---------------------------------------------------------|
F---------------------------------------------------------|
C-77-33-55------------------------------------------------|
G-55-11-33------------------------------------------------|
C---------------------------------------------------------|


[Derek]
d---------------------------------------------------------|
a---------------------------------------------------------|
F-7-9-10--7-9-10--7-9-10-7--7-9-10-7-12-10-9-10---7-9-10--|
C---------------------------------------------------------|
G---------------------------------------------------------|
C---------------------------------------------------------|

d---------------------------------------------------------|
a---------------------------------------------------------|
F-7-9-10--7-9-10-7-12-12-12-10-10-------------------------|
C---------------------------------------------------------|
G---------------------------------------------------------|
C---------------------------------------------------------| x 2


[Jacky]

d---------------------------------------------------------|
a-3-5-6--3-5-6--3-5-6-3--3-5-6-3-8-6-5-6--3-5-6--3-5-6----|
F---------------------------------------------------------|
C---------------------------------------------------------|
G---------------------------------------------------------|
C---------------------------------------------------------|

d---------------------------------------------------------|
a-3-5-6-3--3-5-6-3-8-8-8-6-6------------------------------|
F---------------------------------------------------------|
C---------------------------------------------------------|
G---------------------------------------------------------|
C---------------------------------------------------------| x 2

VERSE again
PRE-Chorus again
Chorus


d---------------------------------------------------------|
a---------------------------------------------------------|
F---------------------------------------------------------|
C-10-----14----14----1414--12-------10----17----12-14-----|
G-8- x8--10h12-10h12-1212--10-x4----8--x8-15-x4-10-12-----|
C---------------------------------------------------------|


d---------------------------------------------------------|
a---------------------------------------------------------|
F---------------------------------------------------------|
C-10-----14----14----1414--12-------10----16--17-16-17-19-|
G-8- x8--10h12-10h12-1212--10-x4----8--x8-14--15-14-15-17-|
C---------------------------------------------------------|


d---------------------------------------------------------|
a---------------------------------------------------------|
F---------------------------------------------------------|
C-77----33--5555-33----3----------------------------------|
G-55----33--3333-11----3----------------------------------|
C-------33-------------3----------------------------------|
                       ^ light pm

CHORUS
[Derek]
d---------------------------------------------------------|
a---------------------------------------------------------|
F-7-9-10--7-9-10--7-9-10-7--7-9-10-7-12-10-9-10---7-9-10--|
C---------------------------------------------------------|
G---------------------------------------------------------|
C---------------------------------------------------------|

d---------------------------------------------------------|
a---------------------------------------------------------|
F-7-9-10--7-9-10-7-12-12-12-10-10-------------------------|
C---------------------------------------------------------|
G---------------------------------------------------------|
C---------------------------------------------------------| x 2


[Jacky]

d---------------------------------------------------------|
a-3-5-6--3-5-6--3-5-6-3--3-5-6-3-8-6-5-6--3-5-6--3-5-6----|
F---------------------------------------------------------|
C---------------------------------------------------------|
G---------------------------------------------------------|
C---------------------------------------------------------|

d---------------------------------------------------------|
a-3-5-6-3--3-5-6-3-8-8-8-6-6------------------------------|
F---------------------------------------------------------|
C---------------------------------------------------------|
G---------------------------------------------------------|
C---------------------------------------------------------| x 2



END
Tap to rate this tab
 
# A B C D E F G H I J K L M N O P Q R S T U V W X Y Z