Song name
# A B C D E F G H I J K L M N O P Q R S T U V W X Y Z

Falling In Reverse - Good Girls Bad Guys tab

-------------------------------------------------------------------------------
                             Good Girls Bad Guys  Falling in Reverse
-------------------------------------------------------------------------------
Tabbed by: bmh62695
E-mail: bmh62695@yahoo.com

Tuning: Drop C

e|---------------------------------------------------------------------------|
B|---------------------------------------------------------------------------|
G|---------------------------------------------------------------------------|
D|--7-7-5-7----3-3-3----5-5-5------------x10-x6------------------------------|
A|--5-5-3-5----1-1-1----3-3-3----5-5-3-5-x8--x4------------------------------|
E|---------------------------------------------------------------------------|
   Pm all 2nd bar
e|---------------------------------------------------------------------------|
B|---------------------------------------------------------------------------|
G|---------------------------------------------------------------------------|
D|--7-----5-----3-----5-----7-----5------------------------------------------| >x16  >x16  >x16
A|--5-----3-----1-----3-----5-----3------------------------------------------| >x16  >x16  >x16
E|---------------------------------------------------------------------------|

e|---------------------------------------------------------------------------|
B|---------------------------------------------------------------------------|
G|---------------------------------------------------------------------------|
D|--3---5--------------------------------------------------------------------|
A|--1---3--------------------------------------------------------------------|
E|---------------------------------------------------------------------------|

Chorus

e|---------------------------------------------------------------------------|
B|---------------------------------------------------------------------------|
G|---------------------------------------------------------------------------|
D|--7-3-3-5------------3----5------------------------------------------------| ending <   >x8  >x8
A|--5-1-3-3------------1----3------------------------------------------------|
E|------3--------------------------------------------------------------------|



************************************

| /   slide up
| \   slide down
| h   hammer-on
| p   pull-off
| ~   vibrato
| +   harmonic
| x   Mute note
| b   Bend
| pb  Pre-bend
| br  Bend release
| pbr Pre-bend release
| brb Bend release bend

************************************
Tap to rate this tab
# A B C D E F G H I J K L M N O P Q R S T U V W X Y Z