Song name
# A B C D E F G H I J K L M N O P Q R S T U V W X Y Z

Falling In Reverse - Bad Girls Club tab

-------------------------------------------------------------------------------
                             Bad Girls Club  Falling In Reverse
-------------------------------------------------------------------------------
Tabbed by: bmh62695
E-mail: bmh62695@yahoo.com

Tuning: Drop C

Intro
e|---------------------------------------------------------------------------|
B|---------------------------------------------------------------------------|
G|---------------------------------------------------------------------------|
D|--99----9x99-99-99999---2x22-22-22222---6x66-66-66644---9x99-99-99999------|
A|--77----7x77-77-77777---0x00-00-00000---4x44-44-44422---7x77-77-77777------|
E|---------------------------------------------------------------------------|

2nd part of the verse
e|---------------------------------------------------------------------------|
B|--9-9-9-9---10-10-10-10---5-5-5-5---7-7-7-7---5-5-5-5----------------------|
G|---8-8-8-8----9--9--9--9---4-4-4-4---6-6-6-6---4-4-4-4---------------------|
D|---------------------------------------------------------------------------|
A|---------------------------------------------------------------------------|
E|---------------------------------------------------------------------------|

Chorus


Guitar 1

e|---------------------------------------------------------------------------|
B|---------------------------------------------------------------------------|
G|---------------------------------------------------------------------------|
D|--9--2--4--4--9--2--4--4--9--2--4--4--9--2---------------------------------|
A|--7--0--4--2--7--0--4--2--7--0--4--2--7--0---------------------------------|
E|--------4-----------4-----------4------------------------------------------|

Guitar 2
e|---------------------------------------------------------------------------|
B|---------------------------------------------------------------------------|
G|---------------------------------------------------------------------------|
D|--2--2--4--4--2--2--4--2--2--2--4--2--2--2---------------------------------|
A|--2--0--4--2--2--0--4--0--2--0--4--0--2--0---------------------------------|
E|--2-----4-----2-----4-----2-----4-----2------------------------------------|

Intro

Verse

Chorus

Before bridge

Guitar 1

e|---------------------------------------------------------------------------|
B|---------------------------------------------------------------------------|
G|---------------------------------------------------------------------------|
D|--9------------------------------------------------------------------------|
A|--7------------------------------------------------------------------------|
E|---------------------------------------------------------------------------|

Guitar 2

e|---------------------------------------------------------------------------|
B|---------------------------------------------------------------------------|
G|---------------------------------------------------------------------------|
D|--2------------------------------------------------------------------------|
A|--2------------------------------------------------------------------------|
E|--2------------------------------------------------------------------------|

Bridge (no guitar)

Chorus

************************************

| /   slide up
| \   slide down
| h   hammer-on
| p   pull-off
| ~   vibrato
| +   harmonic
| x   Mute note
| b   Bend
| pb  Pre-bend
| br  Bend release
| pbr Pre-bend release
| brb Bend release bend

************************************

Tap to rate this tab
 
# A B C D E F G H I J K L M N O P Q R S T U V W X Y Z