Song name
# A B C D E F G H I J K L M N O P Q R S T U V W X Y Z

Falling In Reverse - Its Over When Its Over tab

FALLING IN REVERSE
ITS OVER WHEN ITS OVER
DROP C

Gtr1 Intro
D|-----------12-||---------0~---------------------0~---------------|
A|------10-12---||-------x----------------------x------------------|
F|-9-12---------||-----0~---------------------0~-------------------|
C|--------------||---9~---------(x2)--------7~-------(x2)----------| x2
G|-SYNTH--------||-7~---------------------5~-----------------------|
C|-NOTES--------||-------------------------------------------------|
Gtr2
D|-----------------------------------------------------------------|
A|-8-8-8-8-8-8-8-8-8-8-8-8-8-8-8-8-8-8-8-8-8-8-8-8-8-8-8-8-8-5-5-5-|
F|-----------------------------------------------------------------|
C|-----------------------------------------------------------------| x4
G|-----------------------------------------------------------------|
C|-----------------------------------------------------------------|
   * * * * * * * * * * * * * * * * * * * * * * * * * * * * * * * *
Don't palm mute 5's on last repeat


Pre-chorus 0:32
Gtr1
D|---------------------------------------------|
A|---------------------------------------------|
F|--5--------7-7-7-7---------------------------|
C|--5--(x28)-7-7-7-7----2--------2-2-2-2-(14\)-|
G|--3--------5-5-5-5----2--(x28)-2-2-2-2-(14\)-|
C|----------------------2--------2-2-2-2-(14\)-|
Gtr2*        * * * *    *        * 
D|-----------------------------------------|
A|--10-(x13)--8-8-8-----10-(x13)--12-12-12-|
F|-----------------------------------------|
C|-----------------------------------------| x2
G|-----------------------------------------|
C|-----------------------------------------|
    *         * * *     *         *


Chorus 0:46
Gtr1                                                  Gtr1 & 2 play these
D|----------------------------------------------------|----------------|
A|---------------------------------------------------------------------|
F|------------------5555555555555555-7777777777777777------------------|
C|-2222222222222222-5555555555555555-7777777777777777-5555555544444444-| x2
G|-2222222222222222-3333333333333333-5555555555555555-5555555544444444-|
C|-2222222222222222-----------------------------------5555555544444444-|
Gtr2                                                                                    then 5 & 4's
D|------------------------------------------------------------------------------------------------|
A|------------------------------------------------------------------------------------------------|
F|-16161616161616161612121212121212-17171717----1616161616161616-14141414141414141416161616161616-|
C|-x-x-x-x-x-x-x-x-x-x-x-x-x-x-x-x--x-x-x-x--R--x-x-x-x-x-x-x-x--x-x-x-x-x-x-x-x-x-x-x-x-x-x-x-x--|x2
G|-14141414141414141410101010101010-15151515----1414141414141414-12121212121212121214141414141414-|
C|------------------------------------------------------------------------------------------------|



  REPEAT ALL OF THAT ^^ ( INTRO VERSE, PRECHORUS, CHORUS)

Interlude thing 2:26
D|---------------------------------------------------------------------|
A|---------------------------------------------------------------------|
F|-5555555555555555-7777777777777777-----------------------------------|
C|-5555555555555555-7777777777777777-5555555544444444-2222222222222222-| x2
G|-3333333333333333-5555555555555555-5555555544444444-2222222222222222-|
C|-----------------------------------5555555544444444-2222222222222222-|
Gtr2
D|----------------------------------------------------|
A|----------------------------------------------------|
F|-9-------11-------16161616141414141212121211111111--|
C|-x-(x16)-x-(x16)--x-x-x-x-x-x-x-x-x-x-x-x-x-x-x-x---| x2
G|-7-------9--------1414141412121212101010109-9-9-9---|
C|----------------------------------------------------|



"It's Over" 2:51
D|-0---------------0-------------|
A|-x---------------x-------------|
F|-0---------------0-------------|
C|-9///------------9///----------|
G|-7///-(10///)----7///-(10///)--|
C|-------------------------------|



                Play CHORUS x3 2:58


3:37 end with
D|--------------|
A|--------------|AND
F|----------9~--|THE
C|--2~------x---|SYNTH
G|--2~-and--7~--|TO END
C|--2~----------|THE SONG.

DONE. PLEASE RATE AND COMMENT CHEERS ;p
Tap to rate this tab
# A B C D E F G H I J K L M N O P Q R S T U V W X Y Z