Song name
# A B C D E F G H I J K L M N O P Q R S T U V W X Y Z

Falling In Reverse - Game Over tab

----------------------------------------------------------------------------
                             Game Over
                         Falling In Reverse
----------------------------------------------------------------------------

This is my first time making a tab... I just do hope that this is accurate ! :)

Legende : * = Palm Mute
          / or \ = Slide
          ~ = Let Ring

Keyboard (0:00)

Verse (0:22)
D|-------------------------------------|
A|--------------------------------20~~~|  TWICE
F|--12~~~/16--16~~~/19--19~~~21~~~-----|  TWICE
C|-------------------------------------|   
G|-------------------------------------|
C|-------------------------------------|


Pre-chorus (0:40)
D|-------------------------------------------------|
A|-------------------------------------------------|
F|--12----12----12----12----14----14----14~~\\-----|
C|-----14----14----14----14----16----16-----\\-----|
G|-------------------------------------------------|
C|-------------------------------------------------|
    *  *  *  *  *  *  *  *  *  *

Chorus (0:45)
D|-------------------------------------------------------------------|
A|-------------------------------------------------------------------|
F|-------------------------------------------------------------------|
C|--5-5---5-5-00-2-2---2-2-99-10-10---10-10-00-12-12---12-12---------|
G|--5-5---5-5-00-2-2---2-2-99-10-10---10-10-00-12-12---12-12---------|
C|--5-5---5-5-00-2-2---2-2-99-10-10---10-10-00-12-12---12-12---------|

D|---------------------------------------------------------------------------|
A|---------------------------------------------------------------------------|
F|---------------------------------------------------------------------------|
C|--5-5---5-5-00-2-2---2-2-99-10-10-10-10-10-10-10-10-12-12-12-12-12~~\\-----|
G|--5-5---5-5-00-2-2---2-2-99-10-10-10-10-10-10-10-10-12-12-12-12-12~~\\-----|
C|--5-5---5-5-00-2-2---2-2-99-10-10-10-10-10-10-10-10-12-12-12-12-12~~\\-----|


Verse (1:12)
D|-------------------------------------|
A|--------------------------------20~~~|  TWICE
F|--12~~~/16--16~~~/19--19~~~21~~~-----|  TWICE
C|-------------------------------------|   
G|-------------------------------------|
C|-------------------------------------|


Pre-chorus (1:30)
D|-------------------------------------------------|
A|-------------------------------------------------|
F|--12----12----12----12----14----14----14~~\\-----|
C|-----14----14----14----14----16----16-----\\-----|
G|-------------------------------------------------|
C|-------------------------------------------------|
    *  *  *  *  *  *  *  *  *  *

Chorus (1:35)
D|-------------------------------------------------------------------|
A|-------------------------------------------------------------------|
F|-------------------------------------------------------------------|
C|--5-5---5-5-00-2-2---2-2-99-10-10---10-10-00-12-12---12-12---------|
G|--5-5---5-5-00-2-2---2-2-99-10-10---10-10-00-12-12---12-12---------|
C|--5-5---5-5-00-2-2---2-2-99-10-10---10-10-00-12-12---12-12---------|

D|---------------------------------------------------------------------------|
A|---------------------------------------------------------------------------|
F|---------------------------------------------------------------------------|
C|--5-5---5-5-00-2-2---2-2-99-10-10-10-10-10-10-10-10-12-12-12-12-12~~\\-----|
G|--5-5---5-5-00-2-2---2-2-99-10-10-10-10-10-10-10-10-12-12-12-12-12~~\\-----|
C|--5-5---5-5-00-2-2---2-2-99-10-10-10-10-10-10-10-10-12-12-12-12-12~~\\-----|


Interlude (1:51)
D|----------------------------------------------|
A|----------------------------------------------|
F|----------------------------------------------|
C|--10-----10~--12-----12~--5-----5~--2-----2-0~|
G|--10-----10~--12-----12~--5-----5~--2-----2-0~|
C|--10-----10~--12-----12~--5-----5~--2-----2-0~|
      **               **               *              *        *

D|-----------------------------------------------|
A|-----------------------------------------------|
F|-----------------------------------------------|
C|--10--12--5--2--10--12~~\\---------------------|
G|--10--12--5--2--10--12~~\\---------------------|
C|--10--12--5--2--10--12~~\\---------------------|

Chorus (2:26)
D|-------------------------------------------------------------------|
A|-------------------------------------------------------------------|
F|-------------------------------------------------------------------|
C|--5-5---5-5-00-2-2---2-2-99-10-10---10-10-00-12-12---12-12---------|
G|--5-5---5-5-00-2-2---2-2-99-10-10---10-10-00-12-12---12-12---------|
C|--5-5---5-5-00-2-2---2-2-99-10-10---10-10-00-12-12---12-12---------|

D|---------------------------------------------------------------------------|
A|---------------------------------------------------------------------------|
F|---------------------------------------------------------------------------|
C|--5-5---5-5-00-2-2---2-2-99-10-10-10-10-10-10-10-10-12-12-12-12-12~~\\-----|
G|--5-5---5-5-00-2-2---2-2-99-10-10-10-10-10-10-10-10-12-12-12-12-12~~\\-----|
C|--5-5---5-5-00-2-2---2-2-99-10-10-10-10-10-10-10-10-12-12-12-12-12~~\\-----|

Chorus Part 2 (2:45)
D|------------------------------------------------------------------------|
A|------------------------------------------------------------------------|
F|------------------------------------------------------------------------|
C|--5-5-5-5-5-5-2-2-2-2-2-2-10-10-10-10-10-10-10-12-12-12-12-12-12-12-12--|
G|--5-5-5-5-5-5-2-2-2-2-2-2-10-10-10-10-10-10-10-12-12-12-12-12-12-12-12--|
C|--5-5-5-5-5-5-2-2-2-2-2-2-10-10-10-10-10-10-10-12-12-12-12-12-12-12-12--|

D|----------------------------------------------------------------------------|
A|----------------------------------------------------------------------------|
F|----------------------------------------------------------------------------|
C|--5-5-5-5-5-5-2-2-2-2-2-2-10-10-10-10-10-10-10-12-12-12-12-12-12-12-12~~\\--|
G|--5-5-5-5-5-5-2-2-2-2-2-2-10-10-10-10-10-10-10-12-12-12-12-12-12-12-12~~\\--|
C|--5-5-5-5-5-5-2-2-2-2-2-2-10-10-10-10-10-10-10-12-12-12-12-12-12-12-12~~\\--|


Outro (3:04)
D|---------------------------|
A|-----------------15//------|
F|-11-9--11-9-11-------------|
C|---------------12----------|
G|---------------------------|
C|---------------------------|

Don't forget to rate this tab ! :D
Tap to rate this tab
# A B C D E F G H I J K L M N O P Q R S T U V W X Y Z