Song name
# A B C D E F G H I J K L M N O P Q R S T U V W X Y Z

Falling In Reverse - Self-destruct Personality tab

It's in Drop C, and I think you'll actually love..... 

WWW.FACEBOOK.COM/BEARSAMONGMEN

hahahha but anyways here's the intro lead to "Self-Destruct Personality" by Falling In Reverse:


D|----17H22p17---------|----17h22p17--22/24-22---|---17h22p17-----------|
A|--18--------18--18---|-18--------18------------|--18--------18--18----|
F|19------------19-----|19-----------------------|19------------19------|
C|---------------------|-------------------------|----------------------|
G|---------------------|-------------------------|----------------------|
C|---------------------|-------------------------|----------------------|


D|18p15--15-----------------------||
A|-----17--17-14--17p14--14-------||
F|----------------------15--15----||
C|----------------------------17--||
G|--------------------------------||
C|--------------------------------||


This is my first tab, but please rate honestly and give me feedback, not only about this but..... 

www.facebook.com/bearsamongmen

my BAND, give us your opinion and a LIKE!!!!!!!!!!!
Tap to rate this tab
# A B C D E F G H I J K L M N O P Q R S T U V W X Y Z