Song name
# A B C D E F G H I J K L M N O P Q R S T U V W X Y Z

Fallstar - Horse Without A Rider tab

------------------------------------------------
			     Horse Without A Rider - Fallstar
------------------------------------------------
Tabbed by:FoRtOdAyFaN

Tuning:CGCFAD

Im not sure if the power chords are full or missing the middle note but you can mess with that

D|---------------------------------------------------------------------------|
A|---------------------------------------------------------------------------|
F|---5/7-7777--5/7-7777--5/7-7777--141414--121212----------------------------|
C|---------------------------------------------------------------------------|
G|---3/5-5555--3/5-5555--3/5-5555--121212--101010----------------------------|
C|---------------------------------------------------------------------------|

D|---------------------------------------------------------------------------|
A|---------------------------------------------------------------------------|
F|---5/7-7777--5/7-7777--5/7-7777--14-12-14-10-9-10--------------------------|
C|---------------------------------------------------------------------------|
G|---3/5-5555--3/5-5555--3/5-5555--12-10-12-8--7-8---------------------------|
C|---------------------------------------------------------------------------|

Repeat: x4
D|----------------------------------------------------------| 
A|----------------------------------------------------------|
F|-------7-7-7-7-7-7-77-------12-12-12------14-15-14--------|
C|---00--7-7-7-7-7-7-77---00--12-12-12--00--14-15-14--------|
G|---00--5-5-5-5-5-5-55---00--10-10-10--00--12-13-12--------|
C|---00-------------------00------------00------------------|
pm   ..                   ..            ..

D|-------------------------|
A|-------------------------|
F|-------------------------|
C|-------------------------|
G|--13-12-10-10h12p12-7----|
C|-------------------------|

D|-------------------------------------------------------------------|
A|-------------------------------------------------------------------|
F|-------------------7------------------7-7-7-7-7-7------------------|
C|--0-0-0--0-0-0--------0-0-0--0-0-0---------------------------------|
G|--0-0-0--0-0-0--5b----0-0-0--0-0-0----5-5-5-5-5-5------------------|
C|--0-0-0--0-0-0--------0-0-0--0-0-0---------------------------------|
    . . .  . . .        . . .  . . .
D|-------------------------------------------------------------------|
A|-------------------------------------------------------------------|
F|--------------------7-----------------7-7-7-7-7-7-777777777--------|
C|--0-0-0--0-0-0---------0-0-0--0-0-0--------------------------------|
G|--0-0-0--0-0-0---5b----0-0-0--0-0-0---5-5-5-5-5-5-555555555--------|
C|--0-0-0--0-0-0---------0-0-0--0-0-0--------------------------------|
    . . .  . . .         . . .  . . .


 Repeat: x3
D|---------------------------------------------------------------------------|
A|---------------------------------------------------------------------------|
F|---5/7-7777--5/7-7777--5/7-7777--141414--121212----------------------------|
C|---------------------------------------------------------------------------|
G|---3/5-5555--3/5-5555--3/5-5555--121212--101010----------------------------|
C|---------------------------------------------------------------------------|

D|---------------------------------------------------------------------------|
A|---------------------------------------------------------------------------|
F|---5/7-7777--5/7-7777--5/7-7777--14-12-14-10-9-10--------------------------|
C|---------------------------------------------------------------------------|
G|---3/5-5555--3/5-5555--3/5-5555--12-10-12-8--7-8---------------------------|
C|---------------------------------------------------------------------------|


D|------------|
A|------------|
F|--7-7-7-77--|
C|------------|
G|--5-5-5-55--|
C|------------|

Repeat: x4
D|----------------------------------------------------------| 
A|----------------------------------------------------------|
F|-------7-7-7-7-7-7-77-------12-12-12------14-15-14--------|
C|---00--7-7-7-7-7-7-77---00--12-12-12--00--14-15-14--------|
G|---00--5-5-5-5-5-5-55---00--10-10-10--00--12-13-12--------|
C|---00-------------------00------------00------------------|
pm   ..                   ..            ..

Repeat: x2
D|-----------------------------------------------------------------------------|
A|-----------------------------------------------------------------------------|
F|-----------------------------------------------------------------------------|
C|-----------------------------------------------------------------------------|
G|-0-0-0--12h13p14---0-0-0---10h12p10--0-0-0--12h13p12--13-12-10-10h12p10-7----|
C|-0-0-0-------------0-0-0-------------0-0-0-----------------------------------|
pm . . .             . . .             . . .

D|--------|
A|--------|
F|--------|
C|--------|
G|-0-0-0--|
C|-0-0-0--|
pm . . .

D|-----------------------------------------------------------------------------|
A|-----------------------------------------------------------------------------|
F|-----------------------------------------------------------------------------|
C|-----------------------------------------------------------------------------|
G|-0-0-0--12h13p14---0-0-0--10h12p10---0-0-0--12h13p12--13-12-10-10h12p10-7----|
C|-0-0-0-------------0-0-0-------------0-0-0-----------------------------------|
pm . . .             . . .             . . .

 Repeat: x3
D|---------------------------------------------------------------------------|
A|---------------------------------------------------------------------------|
F|---5/7-7777--5/7-7777--5/7-7777--141414--121212----------------------------|
C|---------------------------------------------------------------------------|
G|---3/5-5555--3/5-5555--3/5-5555--121212--101010----------------------------|
C|---------------------------------------------------------------------------|

D|---------------------------------------------------------------------------|
A|---------------------------------------------------------------------------|
F|---5/7-7777--5/7-7777--5/7-7777--14-12-14-10-9-10--------------------------|
C|---------------------------------------------------------------------------|
G|---3/5-5555--3/5-5555--3/5-5555--12-10-12-8--7-8---------------------------|
C|---------------------------------------------------------------------------|

Check them out at   http://comeandlive.com/artists/fallstar/ 
and   http://www.myspace.com/fallstar

| .   palm mute
| /   slide up
| h   hammer-on
| p   pull-off
| b   Bend
Tap to rate this tab
 
# A B C D E F G H I J K L M N O P Q R S T U V W X Y Z