Guitaretab - guitar tabs
Song name
# A B C D E F G H I J K L M N O P Q R S T U V W X Y Z

False Impressions - Point In Time tab

-------------------------------------------------------------------------------
Point in time - False Impressions
-------------------------------------------------------------------------------
Tabbed by: Justin Moser
Email: www.falseimpressionsjustin@yahoo.com

Tuning: e B G D A E

INTRO (part 1)

Guitar 1 
e|-----------------------------------|
B|-2----2----2-------3-3-3-2---------|
G|-2----2----2-------2-2-2-2---------| x4
D|-0-xx-0-xx-0-xxxxx-0-0-0-0---------|
A|-----------------------------------|
E|-----------------------------------|

INTRO (part 2)

Guitar 1 
e|------------------------------------------------------------------------|
B|-------2h3-2------2----3--2---------------2h3-2-----2-----3--2----------|
G|-2--4----------4----4--------2-~~~--2--4---------4-----4--------2--4-~~-| x2
D|------------------------------------------------------------------------|
A|------------------------------------------------------------------------|
E|------------------------------------------------------------------------|

Guitar 2 
e|-----------------------------------------------------------|
B|-----------------------------------------------------------|
G|-------------99999999----------------77777777-7/9999999----| x2
D|-77777777----99999999-x2-99999999----77777777-7/xxxxxxx----|
A|-77777777-x2-77777777----99999999-x2-55555555-5/7777777----|
E|-55555555----------------77777777--------------------------|

VERSE

Guitar 1 
e|-----------------------------------------------------|
B|-----------------------------------------------------|
G|----------9----9----9~-7--------7----7----7~---------| x 4
D|-7--------9-99-9-99-9~-7-777777-7-77-7-77-7~---------|
A|-7-777777-7-77-7-77-7~-5-555555-5-55-5-55-5~---------|
E|-5-555555--------------------------------------------|

Half way through the verse - guitar 2
e|----------------------------------------|
B|----------------------------------------|
G|----------------------------------------|
D|----------99999999-77777777 77777777----|
A|-77777777-------------------------------|
E|----------------------------------------|

CHORUS

Guitar 1
e|--------------------------------------------------------------|
B|--------------------------------------------------------------|
G|-------------77777777-7\9999999--------------99999999---------| x2
D|-44444444----77777777-7\xxxxxxx--77777777----99999999---------|
A|-44444444-x2-55555555-5\7777777--77777777-x2-77777777---------|
E|-22222222------------------------55555555---------------------|
Guitar 2
e|-5p0-4p0-5p0-7p0--5p0-4p0-5p0-7p0---|
B|------------------------------------|
G|------------------------------------| x8
D|------------------------------------|
A|------------------------------------|
E|------------------------------------|

INTRO
(Half time)

VERSE
(Repeat rhythm guitar) X2

..And PM this riff
e|-------------------|
B|-2---2---5---3-----|
G|---2---2---2---2---| x8
D|-------------------|
A|-------------------|
E|-------------------|

CHORUS

INTERLUDE

Guitar 1 
e|------------------------------------------------------------------------|
B|-------2h3-2------2----3--2---------------2h3-2-----2-----3--2----------|
G|-2--4----------4----4--------2-~~~--2--4---------4-----4--------2--4-~~-| x4
D|------------------------------------------------------------------------|
A|------------------------------------------------------------------------|
E|------------------------------------------------------------------------|

Guitar 2 (Let ring - 2 bars each)
e|---------------------------------|
B|---------------------------------|
G|---------7~~-~~----------9~~-~~--| x2
D|-4~~-~~--7~~-~~--7~~-~~--9~~-~~--|
A|-4~~-~~--5~~-~~--7~~-~~--7~~-~~--|
E|-2~~-~~----------5~~-~~----------|

ROSS GUITAR SOLO

Guitar 1 (Justin rhythm)
e|--------------------------------------------------------------|
B|--------------------------------------------------------------|
G|-------------77777777-7\9999999--------------99999999---------| x2
D|-44444444----77777777-7\xxxxxxx--77777777----99999999---------|
A|-44444444-x2-55555555-5\7777777--77777777-x2-77777777---------|
E|-22222222------------------------55555555---------------------|

Ross guitar 2
e|---------------------------------------------------------------------------|
B|---------------------------------------------------------------------------|
G|-------------------14-16-16b18-16b18-16b18-14h16h14------------------------|
D|-------------14-16----------------------------------16-14-14h16h14---------|
A|-------14-16-------------------------------------------------------16-14---|
E|-14-17---------------------------------------------------------------------|

e|--------------------------------------------------------|
B|--------------------------------------------------------|
G|--------------------------------------------------------|
D|-------14-14------14----------------14------------------|
A|-14h16---------16----16-14----14-16----16-14----14-16---|
E|---------------------------17----------------17---------|

e|-----------------------------------------------------------------------|
B|-----------------17--------14-14-17-17-14-14-------14-14-17-17-14-14---|
G|---------14--16------16-16-------------------16-16---------------------|
D|-14--16----------------------------------------------------------------|
A|-----------------------------------------------------------------------|
E|-----------------------------------------------------------------------|
[ Tab from: http://www.guitaretab.com/f/false-impressions/103193.html ]
e|--------------------------------------------------|
B|-------17-------17-------17-------17-------17~~---|
G|-14h16----14h16----14h16----14h16----14h16--------|
D|--------------------------------------------------|
A|--------------------------------------------------|
E|--------------------------------------------------|

e|--------------------------------------------14~~~-14~~~-14~~~-14~~~-14~~~---|
B|--------------------------------------------17b19-17b19-17b19-17b19-17b19---|
G|-14h16p14-------------------------------------------------------------------|
D|----------16-14-14h16p14-------------14-14----------------------------------|
A|-------------------------16-14-14h16----------------------------------------|
E|----------------------------------------------------------------------------|

KEY CHANGE - A/B
JUSTIN GUITAR SOLO 

Guitar 1 (Ross rhythm)
e|------------------------------------------------------------------------|
B|------------------------------------------------------------------------|
G|-------------99999999-9/11111111111111-------------111111111111111------| x2
D|-66666666----99999999-9/x-x-x-x-x-x-x--99999999----111111111111111-x2---|
A|-66666666-x2-77777777-7/9-9-9-9-9-9-9--99999999-x2-9-9-9-9-9-9-9-9------|
E|-44444444------------------------------77777777-------------------------|

e|----------------------------------------------------------------------------|
B|-19~~~-19~~~-19~~~-19~~~-19~~~-------16h19-19b21-16----16-19-16-------------|
G|-18b20-18b20-18b20-18b20-18b20-16h18----------------18----------18-16--16-18|
D|---------------------------------------------------------------------18-----|
A|----------------------------------------------------------------------------|
E|----------------------------------------------------------------------------|

e|-19*19--19*19--19*19--19*19-19-16----16---------------------------|
B|-16*16--16*16--16*16--16*16-------19----16-19-16----16-19-16------|
G|-------------------------------------------------18----------18---|
D|------------------------------------------------------------------|
A|------------------------------------------------------------------|
E|------------------------------------------------------------------|

e|-------------------------------------------------------------------|
B|-16-----------------19b21-19b21-19b21-16----16-16h19-16------------|
G|----18-16----16-18-----------------------18-------------16-16-18---|
D|----------18-------------------------------------------------------|
A|-------------------------------------------------------------------|
E|-------------------------------------------------------------------|

e|-----------------------------------------------------------------------|
B|-19~~~-19~~~-19~~~-19~~~---------------------------------------19~~~---|
G|-18b20-18b20-18b20-18b20-16~~-------------------------16----16-18b20---|
D|------------------------------------------16h18-16h18----18------------|
A|------------------------------------16h18------------------------------|
E|------------------------------16h19------------------------------------|

e|------------------------------------------------------------------|
B|-------16-19-16----16-19-16----19b21-19b21-16-16h17-16------------|
G|-16h18----------18----------18-------------------------18-16~~~---|
D|------------------------------------------------------------------|
A|------------------------------------------------------------------|
E|------------------------------------------------------------------|

CHORUS(IN THE KEY OF B)

Guitar 1
e|------------------------------------------------------------------------|
B|------------------------------------------------------------------------|
G|-------------99999999-9/11111111111111-------------111111111111111------| x2
D|-66666666----99999999-9/x-x-x-x-x-x-x--99999999----111111111111111-x2---|
A|-66666666-x2-77777777-7/9-9-9-9-9-9-9--99999999-x2-9-9-9-9-9-9-9-9------|
E|-44444444------------------------------77777777-------------------------|

Guitar 2
e|-------------------|
B|-4---4---7---5-----|
G|---4---4---4---4---| x16
D|-------------------|
A|-------------------|
E|-------------------|

| b  bend
| /  slide up
| \  slide down
| h  hammer-on
| p  pull-off
| ~  ring
| +  harmonic
| x  Mute note
===============================================================================

LYRICS

Verse 1
We're gonna cash some tickets
And watch our local bands
Wanna get some inspiration 
And start our punk rock band
We'll get some friends together
And proberly write some songs
Gonna have to give up weekends
Or we'll have to move along.

Chorus
What we gonna do
Our band canít be found
We donít have a clue
I think we're trying to hard ..now
what we gonna do
our band is lost without bound
gonna watch our shows and hold our hand
This time

Verse 2
We got a gig this weekend
Canít wait to do ones best
Gonna have to make ones way 
And consider you impressed


Chorus
What we gonna do
Our band canít be found
We donít have a clue
I think we're trying to hard ..now
what we gonna do
our band is lost without bound
gonna watch our shows and hold our hand
This time

interlude

solos

Chorus
What we gonna do
Our band canít be found
We donít have a clue
I think we're trying to hard ..now
what we gonna do
our band is lost without bound
gonna watch our shows and hold our hand
This time

And thats the tab!
To check out our band and listen to this song visit:
www.blastspace.com/falseimpressions