Song name
# A B C D E F G H I J K L M N O P Q R S T U V W X Y Z

False Start - Mall Goth tab

Intro

e|-----------------------|
b|-----------------------|
g|-10--8-8--1010-6-6-----|
d|-----------------------| 6 times
a|-8---6-6--8-8--4-4-----|
D|-----------------------|

Verse

e|---------------------------------------------------------------------|
b|---------------------------------------------------------------------|
g|---------------------------------------------------------------------|
d|-11-11-11-11-11-11-11-11-11-11-11-11-11-11-11-6-6-6-6-6-6-6-6-6-6----|
a|-11-11----11-11----11-11----11-11----11-11----6-6-6-6-6-6-6-6-6-6----|
D|-11-11----11-11----11-11----11-11----11-11----6-6-6-6-6-6-6-6-6-6----|
PM.......   PM....   PM....   PM....   PM....

e|---------------------------------------------------------------------|
b|---------------------------------------------------------------------|
g|---------------------------------------------------------------------|
d|-8--8--8--8--8--8--8--8--8--8--8--8--8--8--8--4-4-4-4-4-4-4-4-4-4----|Repeat
a|----------8--8-----8--8--------------8--8-----4-4-4-4-4-4-4-4-4-4----|All
D|-8--8-----8--8-----8--8-----8--8-----8--8-----4-4-4-4-4-4-4-4-4-4----|
PM.......   PM....   PM....   PM....   PM....

Chorus

e|-----------------------|
b|-----------------------|
g|-10--8-8--1010-6-6-----|
d|-----------------------| 4 times
a|-8---6-6--8-8--4-4-----|
D|-----------------------|


Verse 2

e|---------------------------------------------------------------------|
b|---------------------------------------------------------------------|
g|---------------------------------------------------------------------|
d|-11-11-11-11-11-11-11-11-11-11-11-11-11-11-11-6-6-6-6-6-6-6-6-6-6----|
a|-11-11----11-11----11-11----11-11----11-11----6-6-6-6-6-6-6-6-6-6----|
D|-11-11----11-11----11-11----11-11----11-11----6-6-6-6-6-6-6-6-6-6----|
PM.......   PM....   PM....   PM....   PM....

e|---------------------------------------------------------------------|
b|---------------------------------------------------------------------|
g|---------------------------------------------------------------------|
d|-8--8--8--8--8--8--8--8--8--8--8--8--8--8--8--4-4-4-4-4-4-4-4-4-4----|Repeat
a|----------8--8-----8--8--------------8--8-----4-4-4-4-4-4-4-4-4-4----|All
D|-8--8-----8--8-----8--8-----8--8-----8--8-----4-4-4-4-4-4-4-4-4-4----|
PM.......   PM....   PM....   PM....   PM....

e|-------------|
b|-------------|
g|-------------|
d|-8-----11----|
a|-8-----11----|
D|-8-----11----|

Chorus

e|-----------------------|
b|-----------------------|
g|-10--8-8--1010-6-6-----|
d|-----------------------| 4 times
a|-8---6-6--8-8--4-4-----|
D|-----------------------|

Bridge

e|-------------------------------------------------------------------------|
b|-------------------------------------------------------------------------|
g|-------------------------------------------------------------------------|
d|-8-8-8-8-8-8-8-8-4-4-4-4-4-4-4-4-11-11-11-11-11-11-11-11-6-6-6-6-6-6-6-6-|
a|-8-8-8-8-8-8-8-8-4-4-4-4-4-4-4-4-11-11-11-11-11-11-11-11-6-6-6-6-6-6-6-6-|
D|-8-8-8-8-8-8-8-8-4-4-4-4-4-4-4-4-11-11-11-11-11-11-11-11-6-6-6-6-6-6-6-6-|

Last Chorus

e|-----------------------|
b|-----------------------|
g|-10--8-8--1010-6-6-----|
d|-----------------------| 13 times
a|-8---6-6--8-8--4-4-----|
D|-----------------------|

e|-------------|
b|-------------|
g|-------------|
d|-11-11-11-11-|
a|-11-11-11-11-|
D|-11-11-11-11-|
Tap to rate this tab
 
# A B C D E F G H I J K L M N O P Q R S T U V W X Y Z