Song name
# A B C D E F G H I J K L M N O P Q R S T U V W X Y Z

Family Force 5 - Radiator tab

radiator (solo)  - family force 5

-------------------------------------------------------------------------------
Tabbed by: Lindsay m
Email: i_fear_snowmen@yahoo.com
i have the whole song tabbed out if peeps want me to post it

Tuning: standard
use fuzz
e|--------------------------------------------------------------------|
B|--------------------------------------------------------------------|
G|---------7-----------7-------9-7-9-----9-10-9----------7---------7--|
D|--7-9-10-----7-9-10-------7--------7-----------7-9-10----7-9-10-----|
A|--------------------------------------------------------------------|
E|--------------------------------------------------------------------|

fast part of solo play twice
e|------------------------------------------------------------------------------------|
B|------------------------------------------------------------------------------------|
G|--9-7-9---7-9-7------7--------------------------------------------------------------|
D|------------------10---10--9-10-9---------------------------------------------------|
A|------------------------------------------------------------------------------------|
E|------------------------------------------------------------------------------------|


| /  slide up
| \  slide down
| h  hammer-on
| p  pull-off
| ~  vibrato
| +  harmonic
| x  Mute note
===============================================================================
Tap to rate this tab
 
# A B C D E F G H I J K L M N O P Q R S T U V W X Y Z