Song name
# A B C D E F G H I J K L M N O P Q R S T U V W X Y Z

Family Force 5 - Supersonic tab

Hey everyone! So i figured out the tab for Supersonic, and after realizing no one else 
had the correct tab, i decided to post this. Enjoy!

Intro

This part is done by a synthesizer, but i've tabbed it out for guitar.

D|---19--20--19-------19--19-22-20-19-|
A|-17--17-----------17--17------------|
F|------------------------------------|
C|------------------------------------|
G|------------------------------------|
C|------------------------------------|

Here's the guitar intro

D|------------------------------------------------------------------------|
A|------------------------------------------------------------------------|
F|------------------------------------------------------------------------|
C|-0--0-0--0-2----12-14--2-2----0--0--2----12-14--2-2----0--0-0--0-2------|
G|-0--0-0--0-2----12-14--2-2----0--0--2----12-14--2-2----0--0-0--0-2------|
C|-0--0-0--0-2----12-14--2-2----0--0--2----12-14--2-2----0--0-0--0-2------|
 
The Chorus is the same as the intro, and the guitar doesnt play at the bridge.

Hope this helps everyone! Rock on!
Tap to rate this tab
 
# A B C D E F G H I J K L M N O P Q R S T U V W X Y Z