Song name
# A B C D E F G H I J K L M N O P Q R S T U V W X Y Z

Family Force 5 - Kountry Gentlemen tab

Kountry Gentleman

By:Family Force 5

Tabbed by: Ha-cunha-matata

Tuning: Drop D

This is a great song by an amazing band. Easy to play too!

Intro: play 4 times (3 times muted, last time un-muted)
e|---------------------------------------------------------------------------------|
B|---------------------------------------------------------------------------------|
G|---------------------------------------------------------------------------------|
D|-3-3-3-3-2-3---3-3-3-3-2-3-0-----------------------------------------------------|
A|-3-3-3-3-2-3---3-3-3-3-2-3-0-----------------------------------------------------|
D|-3-3-3-3-2-3---3-3-3-3-2-3-0-----------------------------------------------------|

Chorus:Play section 1 3 times and then 2 on the 4th part
e|-----------------------|---------------------------------------------------------|
B|-----------------------|---------------------------------------------------------|
G|-----------------------|---------------------------------------------------------|
D|-12-14---9-9-7--7-9-7-0|-7-0--7-9—-9/12-12—-9/12---------------------------------|
A|-12-14---9-9-7--7-9-7-0|-7-0--7-9—-9/12-12—-9/12---------------------------------|
D|-12-14---9-9-7--7-9-7-0|-7-0--7-9—-9/12-12—-9/12---------------------------------|

Verses:Play 7 times (Last bar of the verse is just the dj’s synth)
e|------------------------------------------------------------------------------------|
B|------------------------------------------------------------------------------------|
G|------------------------------------------------------------------------------------|
D|00---222--00---2-2/3\2-0------------------------------------------------------------|
A|00---222--00---2-2/3\2-0------------------------------------------------------------|
D|00---222--00---2-2/3\2-0------------------------------------------------------------|

Bridge: Same as chorus, but there’s a quick little neck slide somewhere in there:
e|---------------------------------------------------------------------------------|
B|---------------------------------------------------------------------------------|
G|---------------------------------------------------------------------------------|
D|---------------------------------------------------------------------------------|
A|-/7\0/8\1------------------------------------------------------------------------|
D|---------------------------------------------------------------------------------|

And that’s it!
Tap to rate this tab
 
# A B C D E F G H I J K L M N O P Q R S T U V W X Y Z