Song name
# A B C D E F G H I J K L M N O P Q R S T U V W X Y Z

Family Force 5 - Zombie tab

Song - Zombie
Artist - Family Force 5

This is my first tab so tell me if i did anything wrong

The actual way to play it is in drop d, but if
you don't want to drop d, i have it tabbed in
standard too.

Please rate, and if you have any questions,
leave comments or email me at collindhart@yahoo.com

Intro/Chorus (Drop D)

E------------------------|
B------------------------|
G------------------------|
D--4---7-6-5-4---7-6-5-4-|
A--4---7-6-5-4---7-6-5-4-|
D--4---7-6-5-4---7-6-5-4-|

Intro/Chorus (Standerd)

E------------------------------|
B------------------------------|
G------------------------------|
D--4---7-6-5-4---7-6-5-4-------|
A--4---7-6-5-4---7-6-5-4-------|
D--2---5-4-3-2---5-4-3-2-------|

After that there is a part i'm not shure if
it is played on the guitar or not, but i tabbed
it anyways.

E---15p14---15p14---15p14-15p14------------|
B------------------------------------------|
G------------------------------------------|
D------------------------------------------|
A------------------------------------------|
D------------------------------------------|
Tap to rate this tab
 
# A B C D E F G H I J K L M N O P Q R S T U V W X Y Z