Song name
# A B C D E F G H I J K L M N O P Q R S T U V W X Y Z

Family Force 5 - Love Addict tab

Love Addict
Family Force 5
Business Up Front Party In The Back
Gotee Records

Drop D tuning
h=hammer on


Intro
e---------------------------------------------|
b---------------------------------------------|
g---------------------------------------------|
d-3030-0-0--6060-0-0--10/0/10/0-0-0--6060-0-0-|
a-3030-0-0--6060-0-0--10/0/10/0-0-0--6060-0-0-|
d-3030-0-0--6060-0-0--10/0/10/0-0-0--6060-0-0-|

Verse 1
e--------------------------------------------------------------|
b--------------------------------------------------------------|
g--------------------------------------------------------------|
d--------------------------------------------------------------|
a--------------------------------------------------------------|
d-6-5-6-5-5-3-5-6-5-6-5-5-3-5-6-5-6-5-5-3-5-6-5-6-5-5-3-5------|

e---------------------------------------------------------------------------|
b---------------------------------------------------------------------------|
g---------------------------------------------------------------------------|
d---------------------------------------------------------------------------|
a---------------------------------------------------------------------------|
d-3030-0-0-6030-0-0-6-5-6-5-5-3-5-6-5-6-5-5-3-5-6-5-6-5-5-3-5-6-5-6-5-5-3-5-|


e----------------------|
b----------------------|
g----------------------|
d----------------------|
a----------------------|
d-3030-0-0-6030-0-0----|

Chorus 1
e---------------------------------------------|
b---------------------------------------------|
g---------------------------------------------|
d-3030-0-0--6060-0-0--10/0/10/0-0-0--6060-0-0-| x2
a-3030-0-0--6060-0-0--10/0/10/0-0-0--6060-0-0-|
d-3030-0-0--6060-0-0--10/0/10/0-0-0--6060-0-0-|

Verse 2
e---------------------------------------------------------------------------|
b---------------------------------------------------------------------------|
g---------------------------------------------------------------------------|
d---------------------------------------------------------------------------|
a---------------------------------------------------------------------------|
d-6-5-6-5-5-3-5-6-5-6-5-5-3-5-6-5-6-5-5-3-5-6-5-6-5-5-3-5-3030-0-0-6030-0-0-|

Chorus -
e---------------------------------------------|
b---------------------------------------------|
g---------------------------------------------|
d-3030-0-0--6060-0-0--10/0/10/0-0-0--6060-0-0-| x2
a-3030-0-0--6060-0-0--10/0/10/0-0-0--6060-0-0-|
d-3030-0-0--6060-0-0--10/0/10/0-0-0--6060-0-0-|

Bridge
e-----------------------------------------------------------|
b-----------------------------------------------------------|
g-9999h10-9999h10-------------------------------------------|
d-----------------------------------------------------------|
a-----------------------------------------------------------|
d-------------------2-2202-2-2202-2-2202-2-2202--2202--2202-|

Chorus 3
e----------------------------------------|
b----------------------------------------|
g----------------------------------------|
d----------------------------------------|
a---------1-1-------5-5-------1-1--------|
d-5252-2-2---2-2-2-2---2-2-2-2---2-2-2-2-|

That's it, please rate and comment

MidgtGuitarist10
Tap to rate this tab
 
# A B C D E F G H I J K L M N O P Q R S T U V W X Y Z