Guitaretab - guitar tabs
Song name
# A B C D E F G H I J K L M N O P Q R S T U V W X Y Z

Family Force 5 - Kountry Gentlemen tab

Tabbed by: Michelle
Email:mcurr9@hotmail.com
i think thats how it goes

Tuning: Drop D

e|--------------------------------------------------------------------------|
B|--------------------------------------------------------------------------|
G|--------------------------------------------------------------------------|
D|--------------------------------------------------------------------------|
A|-22222-3-22222-3-0--------------------------------------------------------|
E|-22222-3-22222-3-0--------------------------------------------------------|
x3


e|--------------------------------------------------------------------------|
B|--------------------------------------------------------------------------|
G|--------------------------------------------------------------------------|
D|--------------------------------------------------------------------------|
A|12-14-6-7-0-0-2-2-0-12-14-6-7-0-2-2-0-12-14-6-7-0-2-0-2-0-6-0-0-11/12-0-2-|
E|12-14-6-7-0-0-2-2-0-12-14-6-7-0-2-2-0-12-14-6-7-0-2-0-2-0-6-0-0-11/12-0-2-|
[ Tab from: http://www.guitaretab.com/f/family-force-5/75821.html ]
Verse
e|--------------------------------------------------------------------------|
B|--------------------------------------------------------------------------|
G|--------------------------------------------------------------------------|
D|--------------------------------------------------------------------------|
A|--------------------------------------------------------------------------|
E|0-2-2-2-2-0-2-3-2-0 x3---7~-5~-9~-0---------------------------------------|

chorus
e|--------------------------------------------------------------------------|
B|--------------------------------------------------------------------------|
G|--------------------------------------------------------------------------|
D|--------------------------------------------------------------------------|
A|12-14-6-7-0-2-2-0-6-0--0-11/12-0-2-0--------------------------------------|
E|12-14-6-7-0-2-2-0-6-0--0-11/12-0-2-0--------------------------------------|
repeat

e|--------------------------------------------------------------------------|
B|--------------------------------------------------------------------------|
G|--------------------------------------------------------------------------|
D|--------------------------------------------------------------------------|
A|12-14-6-7-0-2-2-0---------------------------------------------------------|
E|12-14-6-7-0-2-2-0---------------------------------------------------------|


| /  slide up
| \  slide down
| h  hammer-on
| p  pull-off
| ~  vibrato
| +  harmonic
| x  Mute note
Related for Kountry Gentlemen tab
Advertisement will be closed in 10 seconds