Song name
# A B C D E F G H I J K L M N O P Q R S T U V W X Y Z

Family - My Friend The Sun tab

-------------------------------------------------------------------------------
			     My Friend The Sun
                                  Family
-------------------------------------------------------------------------------
Tabbed by:Alan C Brown.
Email: acousticbrown@hotmail.co.uk

Tuning:Standard with capo 5th fret.

My rhythm pattern is simplified so listen to the song to make it your own.  There 
are a few run downs and links to complete perhaps someone else can complete them.  The 
run downs are a little different to the Family version perhap two guitars are playing. 

Roger Chapman & Family.

e|---7-7-7-7-7---7-7-0-7-0---2-2-2-2-2---2-0-2-0-0---7-7-8-7-7---7-7-0-7-0---|
B|---8-8-8-8-8---8-8-8-8-8---3-3-3-3-3---3-3-3-3-3---8-8-8-8-8---8-8-8-8-8---|
G|---7-7-7-7-7---7-7-7-7-7---2-2-2-2-2---2-2-2-2-2---7-7-7-7-7---7-7-7-7-7---|
D|-0-----------o-----------0-----------0-----------0-----------0-------------|
A|---------------------------------------------------------------------------|
E|---------------------------------------------------------------------------|

e|---2-2-2-2-2---2-0-2-0-0---7-7-7-7-------------0-0-0-0-----0-0-----0-0---0-0-0-0---|
B|---3-3-3-3-3---3-3-3-3-3---8-8-8-8---7-7-7-7---0-0-0-0-----0-0-----0-0---0-0-0-0---|
G|---2-2-2-2-2---2-2-2-2-2---7-7-7-7---6-6-6-6---0-0-0-0-----0-0-----0-0---0-0-0-0---|
D|-0-----------0-----------0-----------7-7-7-7---2-2-2-2-----2-2-0-2-2-2---2-2-2-2---|
A|-----------------------------------0-----------2-2-2-2-0-2-2-2---------------------|
E|---------------------------------------------0-------------------------0-----------|

e|-----0-0-----0-0---2-2-3-2-2-2---------7-7-7-7-------------0-0-0-0-----0-0-----0-0-|
B|-----0-0-----0-0---3-3-3-3-3-3---------8-8-8-8---7-7-7-7---0-0-0-0-----0-0-----0-0-|
G|-----0-0-----0-0---2-2-2-2-2-2---------7-7-7-7---6-6-6-6---0-0-0-0-----0-0-----0-0-|
D|-----2-2-0-2-2-2-0-----------------0-0-----------7-7-7-7---2-2-2-2-0-2-2-2-----2-2-|
A|-0-2-2-2-----------------------0-2-------------0-----------2-2-2-2---------0-2-2-2-|
E|---------------------------------------------------------0-------------------------|

e|---0-0-0-0-----0-0-----0-0---2-2-2-2-2-2-2-2-2-2-2---0-0-0-0-0-0-0-0-0-0-0-|
B|---0-0-0-0-----0-0-----0-0---2-2-2-2-2-2-2-2-2-2-2---0-0-0-0-0-0-0-0-0-0-0-|
G|---0-0-0-0-----0-0-----0-0---2-2-2-2-2-2-2-2-2-2-2---0-0-0-0-0-0-0-0-0-0-0-|
D|---2-2-2-2-----2-2-0-2-2-2---4-4-4-4-4-4-4-4-4-4-4---2-2-2-2-2-2-2-2-2-2-2-|
A|---2-2-2-2-0-2-2-2-----------4-4-4-4-4-4-4-4-4-4-4---2-2-2-2-2-2-2-2-2-2-2-|
E|-0-------------------------2-2-2-2-2-2-2-2-2-2-2-2-0-0-0-0-0-0-0-0-0-0-0-0-|

e|--2-2-2-2---2-2-2-2---2-2-2-2---2-2-2-2---2-2-2-2---0-0---0-0---0-0---0-0--|
B|--3-3-3-3---3-3-3-3---3-3-3-3---3-3-3-3---3-3-3-3---3-3---3-3---3-3---3-3--|
G|--2-2-2-2---1-1-1-1---0-0-0-0---2-2-2-2---2-2-2-2---0-0---0-0---0-0---0-0--|
D|-0----------------------------0---------0----------------------------------|
A|----------0---------------------------------------3-----2-----0------------|
E|--------------------3-----------------------------------------------3------|

e|---0-0---0-0---2-2-2-2---2-2-2-2---2-2-2-2---2-2-2-2-2-2---------3---------|
B|---3-3---3-3---3-3-3-3---3-3-3-3---3-3-3-3---3-3-3-3-3-3---------3---------|
G|---0-0---0-0---2-2-2-2---1-1-1-1---0-0-0-0---2-2-2-2-2-2---------0---------|
D|-------------0-----------------------------0---------------------0---------|
A|-----------------------0-------------------------------------0-2-3---------|
E|-1-----0-------------------------3-----------------------0-3---------------|

   Then back to the beginning and repeat throughout........



Well i know that you're lonely, come in from the cold
You're shoes they need mending, you're clothes they look old
Won't you pick up you're pieces, it's never too late
Though it's never early to make a mistake
As soon as you wake

Although there's been rain and it's coming again
Change has to be here obviously
Though my friend the sun looks well on the run
He's there in the distance if you care to see

Well i know that your waiting, come out of you're shell
There'll come a time and you'll remember it well
When you take all the good times from chances you had
Chances you've made and what you've learnt from the bad
It's never so sad

Although there's been rain and it's coming again
Change has to bee here obviously
Though my friend the sun looks well on the run
He's there in the distance if you care to see...see

If the season were reason, then there'd be no doubt
A sequel of changes worth putting you out
But on the question of whether you heard a lie
Answer yourself looking straight in his eyes
Don't you realise

Although there's been rain and it's coming again
Change has to be here obviously
Though my friend the sun looks well on the run
He's there in the distance if you care to see....see.


| /  slide up
| \  slide down
| h  hammer-on
| p  pull-off
| ~  vibrato
| +  harmonic
| x  Mute note
===============================================================================
Tap to rate this tab
 
# A B C D E F G H I J K L M N O P Q R S T U V W X Y Z