Song name
# A B C D E F G H I J K L M N O P Q R S T U V W X Y Z

Fanatic Crisis - Ryuuseigun tab

Artist:  Fanatic Crisis
Song:    Ryuuseigun


INTRO:

(Till 0:38)

E ---5-8--5-8--5-8--5-8--5-8----8---|
B --6----6----6----6----6----6-6-6--|
G ----------------------------------|
D ----------------------------------|
A ----------------------------------|
E ----------------------------------|


Yoru no hatte tabibito wa

hoshizora wo miage

naiteiru, hitoshirezu


(0:38)

    F            Am            F7            Dm

E --------------------------------------------------------|
B --6-5-6-8-6-5--6-5-6-8-6-5---6-5-6-8-6-5---6-5-6-8-6-5--|
G ---5-5----------5-5-----------5-5-----------5-5---------|
D --------------------------------------------------------|
A --------------------------------------------------------|
E --------------------------------------------------------|


    F            Am            F7            Dm

E --------------------------------------------------------|
B --6-5-6-8-6-5--6-5-6-8-6-5---6-5-6-8-6-5---6-5-6-8-6-5--|
G ---5-5----------5-5-----------5-5-----------5-5---------|
D --------------------------------------------------------|
A --------------------------------------------------------|
E --------------------------------------------------------|

  F          Am
tatakai ni maketa TOKI
  F7                Dm
kabe wo koeraremu TOKI
Bb C      F      Bb C      F
mmmm! Umi no ue, mmmm! mayou TOKI

          Am
omoidasu ano uta wo
F7              Dm
kimi ga utatte ita
Bb  C     F        Bb  C        F       Bb
a n o yasashikute, a n o setsunai uta

  C     Am   Dm  Bb   C        Am  Dm   Bb
taisetsuna mono,    kono hoshi no ue
  C        Am  Dm    Bb        C
mugen ni hirogaru ai no koe, sono koe


  F            Bb       C         F
mada yoru wa subarashii asa wo tsure
             Bb      C         F
mou sukoshi  koko de yume  o miyou

  F            Bb       C         F
mada yoru wa subarashii asa wo tsure
             Bb      C         F
mou sukoshi  koko de yume  o miyou

Bb  C  Bb  C   C#  D#  E   F#


F..............

It's a beautiful by Fanatic Crisis, very nice, very specia, listen it and play it.

Comments, requests to:

joshel_999@hotmail.com
fjoshel@yahoo.com


Fanatic Crisis official site:
http://www.sol-blade.co.jp/top001.htm
Tap to rate this tab
# A B C D E F G H I J K L M N O P Q R S T U V W X Y Z