Song name
# A B C D E F G H I J K L M N O P Q R S T U V W X Y Z

Fancy Me Yet - This City tab

INTRO

e|-------------------------------|-------------------------|
B|-------------------------------|-------------------------|
G|-------------------------------|-------------------------|
D|-------------------------------|-------------------------|
A|--5-5---4-5-7-4----------------|-------------------------|
E|------------------7-7-5-7-5-7--|-0-2-2--0-2-0--2-2--0-2-2|

e|-------------------------------|-------------------------|   |----------|
B|-------------------------------|-------------------------|   |----------|
G|-------------------------------|-------------------------|X2 |----------| 
D|-------------------------------|-------------------------|   |----------|
A|--5-5---4-5-7-4----------------|-------------------------|   |----5/6-5-|
E|------------------7-7-5-7-5-7--|-0-2-2--0-2-0--2-2--0-2-2|   |--5-------|

INTRO X4

Soon a second part

By: Dradade
Tap to rate this tab
# A B C D E F G H I J K L M N O P Q R S T U V W X Y Z