Song name
# A B C D E F G H I J K L M N O P Q R S T U V W X Y Z

Fandangle - Hello Goodbye tab

Jonas Brothers version of Hello Goodbye originally done by the Beatles
listen to song for strumming patterns.

10/6/08 Okay, here is an update. i changed the verses chords because they were a little off. 
Now they are exactly like the song. Hope you like it.
Here is some credit to missyjstar100 who helped with the chorus alittle; the first 2 chords!
Yay thxxxx. And yes, you DO get credit :D

VERSE:       strum for x244xx: d d u d d u d d u d d D
e|-------------------------------------------------------------|
B|-------------------------------------------------------------|
G|--9-9--------------------------------------------------------|
D|--9-9---9-9---4-4---6-6----4---------------------------------|
A|--7-7---9-9---4-4---6-6----4---------------------------------|
E|--------7-7---2-2---4-4----2---------------------------------|

you say yes, i say no..   go go goooo...      u say goodbye....


CHORUS:
e|------------------------------------------------|
B|------------------------------------------------|
G|------------------------------------------------|
D|------------9----8----6----4----2----5----9-----| x2 (on the second time,
A|------------9----8----6----4----2----5----9-----|      keep strumming last
E|------------7----6----4----2----1----3----7-----|       note until verse)
  and i say hello


REPEAT VERSE


REPEAT CHORUS


BRIDGE:
e|-------------------------------------------------|
B|-------------------------------------------------|
G|---9----4----------------------------------------|
D|---9----4----4----6----4x(strum until chorus)----|
A|---7----2----4----6----4-------------------------|
E|-------------2----4----2-------------------------|
             wh wh wh why why why do you say goodbye goodbye oh no

REPEAT CHORUS x2

ENDING (every chord x4
e|--------------|
B|--------------|
G|---8----------| x9 (until song ends in a fade)
D|---8-----9----|
A|---6-----9----|
E|---------7----|
heya heayello heya heyaello
Tap to rate this tab
 
# A B C D E F G H I J K L M N O P Q R S T U V W X Y Z